Wednesday, 21 May 2014

Banjaara Guitar Tabs



Title: Banjaara Guitar Tabs
Movie: Ek Villain
 
This is the second song of movie Ek Villain which I am going to post here. The song is composed by Mithoon and for me he is the king of melody. This is one of his magical compositions. I listen this again & again daily. Honestly the first Para of this song will sound too good on the guitar, second is good too but tricky to play. The song is very slow and romantic but to play on the guitar you need to make even flow. So before playing it, practice as much as you can & remember the notes.
You can also check out the video lesson if you stuck somewhere. You can find some differences in the video and the tabs available here but don’t worry about that. The notes are same as given below and you can play the one note twice thrice or as you like them.
Check out the tabs below:



Jise zindgi dhoond rahi hai
G|---------6-8-6------------------------------------------|
D|-6-7-9----------9-7/9/7-6-----------------------------|

If you are good at hammers and pull offs then you can also play above line like below:
G|---------6-8-6------------------------------------------|
D|-6-7-9---------9-7h9p7-6-----------------------------|

Kya yeh wo mukaam mera hai
G|----------6-8-6-----------------------------------------|
D|-6h7-9-----------9—7/9/7-6--------------------------|

Jahaan chain se bus ruk jaun
G|---------6-8-6-6---------------------------------------|
D|-6-7-9------------9-7/9-7-6---------------------------|


Kyon dil yeh mujhe kehta hai
G|----------6-8-6-6-----9-7-----------------------------|
D|-6h7-9-------------9-----------------------------------|

Jajbaat naye se mile hain
G|-8-9-11-11-9-9-8-6/9-8------------------------------|
D|---------------------------------------------------------|

Jane kya asar je hua hai
G|-8h9-11-11-9-9-8-6/9-8-----------------------------|
D|--------------------------------------------------------|

Ek aas mili phir mujhko
G|-6-8-9-9-8-6-6-----8-6-6----------------------------|
D|------------------9-------------------------------------|

Jo kabool kisi ne kiya hai
G|-------6-6---------------------------------------------|
D|-7-9--------9-7-6-----7-6----------------------------|
A|---------------------9----------------------------------|

Hmm kisi shayer ki gazal
D|-6-66-7p6-4---4/2-1--------------------------------|
A|---------------7---------4/11-------------------------|

Jo de rooh ko sakoon ke pal
D|--------7/6-4------4/2-1-----------------------------|
A|-11-11---------7-----------4---4-2------------------|

Koi mujhko yun mila hai
D|----1-1-1-1------1-1-1------------------------------|
A|-2-------------2--------------------------------------|

Jaise banjaare ko ghar
D|----1-1-1h2-2p1-1----------------------------------|
A|-2--------------------4-------------------------------|

Naye mausam ki sehar
D|-66-7p6-4------4/2--1------------------------------|
A|--------------7-----------4/11-----------------------|

Ja sard mein dopehar
D|-6h7—7p6-4-----4/2-1-----------------------------|
A|----------------7----------4--4-2--------------------|

Koi mujhko yun mila hai
B|-----4444------------444----------------------------|
G|-4----------6-4---4----------------------------------|

Jaise banjare ko ghar
B|-----44-4h5—5p4--4-------------------------------|
G|-4----------------------6----------------------------|

Second Para.

Jaise koi kinara
G|-----------6-6/8—6/4-------------------------------|
D|-6--999----------------------------------------------|

Deta hai sahara
G|-----------6-6h8—6/4-------------------------------|
D|-6h9-99----------------------------------------------|

Mujhe wo mila kisi mod par
G|-44-6p4-4-4/6--8-9p6-4/6-4-4-------------------|
D|------------------------------------6----------------|

Koi raat ka taara
G|-----------6-6/8—6/4-------------------------------|
D|-6--999----------------------------------------------|

Karta hai ujaala
B|-----7-7-5-4-----------------------------------------|
G|-4-------------4/6—4/2-----------------------------|

Waise hi roshan kare wo shehar
G|-4-6-4-6-6--8-9p6-4/6--4-4-----------------------|
D|---------------------------------6--------------------|

Dard mere wo bhula hi gaya
G|-8-8-6-8-8--11-11-9-8-9---------------------------|
D|-------------------------------------------------------|

Kuch aisa asar hua
G|-9-11-11/13-13-9-9/11-9-8-----------------------|
D|------------------------------------------------------|

Jeena mujhe phir se wo sikha raha
G|-8-8-6-8---8-6-8-8--4-4/6/8--6-6-----------------|
D|------------------------------------------------------|

Hmm jaise barish karde tar
D|-6-66-7p6-4---4/2-1-------------------------------|
A|---------------7---------4/11-----------------------|

Ja marham dard par
D|-6h7—7p6-4-----4/2-1-----------------------------|
A|----------------7----------4--4-2--------------------|

Koi mujhko yun mila hai
D|----1-1-1-1------1-1-1------------------------------|
A|-2-------------2--------------------------------------|

Jaise banjaare ko ghar
D|----1-1-1h2-2p1-1----------------------------------|
A|-2--------------------4-------------------------------|

Naye mausam ki sehar
D|-66-7p6-4------4/2--1------------------------------|
A|--------------7-----------4/11-----------------------|

Ja sard mein dopehar
D|-6h7—7p6-4-----4/2-1-----------------------------|
A|----------------7----------4--4-2--------------------|

Koi mujhko yun mila hai
B|-----4444------------444----------------------------|
G|-4----------6-4---4----------------------------------|

Jaise banjare ko ghar
B|-----44-4h5—5p4--4-------------------------------|
G|-4----------------------6----------------------------|

You can play the third Para as Second Para. Keep Playing & Keep Rocking!!!

8 comments:

  1. sir plz u tell me what is "h" and "p" on tabs....

    ReplyDelete
    Replies
    1. it means h > hammer on and p > pull off. here is simple tutorial. http://www.cyberfret.com/guitar-techniques/hammer-ons-pull-offs/

      Delete
  2. nice tabs.. :)
    well, can you please post the tabs of interlude part which is after 2nd para?? PLEASE PLEASE PLEASE??? :)

    ReplyDelete
  3. one mistake in this line Kyon dil yeh mujhe kehta hai
    G|----------6-8-6-6-----9-7-----------------------------|
    D|-6h7-9-------------9-----------------------------------|
    it it is not 7nth fret it is 8th fret i hve posted this because i am only 13 years old and i got confused while playing this line so please correct it

    ReplyDelete
  4. Thanks for the tabs of this song. But it's a little hard for beginner's doing all those hammer on and pull of at the same time. So if anyone want to join best guitar classes in Nagpur, can contact at 8055090449. Thanks and keep on the good work. :)

    ReplyDelete
  5. The guitar is one of the perfect instruments, I love them. You can see more of my mini guitar here dam guitar mini
    guitar mini

    ReplyDelete