Monday, 21 October 2013

Har kisi ko guitar tabs boss



Song:  Har Kisi Ko Nahi Milta Guitar Tabs
Movie: Boss 

As described above this song is from the movie Boss. This song is actually a remake of the old song with the same name. But they changed the lyrics, i think & the music also. But the two main lines of the song are the same & used on same music in this movie.
At this time i can't upload the video because of some issues. The video is ready but my videos are blocked by yt. so let me do some editings and find some ways so that i can provide videos with each song. If you know some ways by which i can overcome this problem then feel free to tell me, so that i can post the videos with the tablatures which will be helpful for beginners to understand the song easily.

Let's start the song..


Line 1
G|--3-5-3-5—5/7---------------------------------------|
D|--------------------------------------------------------|

Line 2
G|-7-5-3-3----------------------------------------------|
D|-------------3/5---------------------------------------|

Line 3
G|----3-5-5—3/5----------------------------------------|
D|-5------------------------------------------------------|

Line 4
G|-33-3—3/7--------------------------------------------|
D|--------------------------------------------------------|

Line 5
B|-----------6-3-----------------------------------------|
G|-3-5-3-------------------------------------------------|

Line 6
B|-3-----------------------------------------------------|
G|----5--3--3-------------------------------------------|
D|---------------3/5------------------------------------|

Line 7
G|----3-5-5----3/5-------------------------------------|
D|-5-----------------------------------------------------|

Line 8
G|------5---3-3-----------------------------------------|
D|--6----------------------------------------------------|

Line 9 & 10 (play below line twice, one time for 9th line & once for 10th.)
G|-7/10--10---10/7--7---------------------------------|
D|-------------------------------------------------------|

Line 11
G|-7/10--10—10/8--8---------------------------------|
D|-------------------------------------------------------|

Line 12
G|-8-7--33---------------------------------------------|
D|-------------------------------------------------------|

Line 13
G|-3-5—5/7--3-3-5—5/7--------5-3/5---------------|
D|---------------------------3-3-----------------------|

Line 14 (har kisi ko)
G|-333-5/7--5-3--3-3/5------------------------------|
D|------------------------------------------------------|

Line 15
G|-3-----4-4/6--4--3-3-------------------------------|
D|----6------------------------------------------------|

Repeat Line 14 & 15

Line 16
B|---------------------------88888-----------------|
G|-7-8-10-10-10-10--10-----------8--------------|

Line 17
B|------7—7/9--7----------------------------------|
G|-88---------------10-10-------------------------|

Lead played in between the song

Lead Line 1
B|--------------------------3-----------------------|
G|-------3-4-3------3-4---------------------------|
D|-3-6-----------6---------------------------------|

Lead Line 2
B|--------------------------------------------------|
G|-------3-4-3-----3-------------------------------|
D|-3-6----------6-------6---4--3------------------|

Play Lead Line 1 again

Lead Line 3
B|---------------------------------------------------|
G|-------3-4-3-------3-----------------------------|
D|-3-6-----------6---------------------------------|

Second Para

Line 18
G|-7-8--10-10-10-------11-10-10-----------------|
D|-------------------88------------------------------|

Line 19
G|-7-8-11-11-11-------11-10-10------------------|
D|------------------88-------------------------------|

Play Line 18 & 19 once again.

Line 20
G|-7-5555-7-5--------------------------------------|
D|----------------6----------------------------------|

Play Line 20 once again

Line 21
G|-4--3-3--------------------------------------------|
D|----------------------------------------------------|

Now play line 1 to line 4.
Then Play Line 9 to 17 to complete the song.

1 comment:

  1. Awesome work bro..
    Really appreciate it..
    I was hopelessly looking for this.
    Thanks a lot

    ReplyDelete