Sunday, 22 December 2013

Kabhi Na Kabhi Toh Miloge Guitar Tabs Shaapit



Title: Kabhi Na Kabhi Toh Miloge Guitar Tabs
Movie: Shaapit

Requested by:  Shreya Rajput

This song is the most melodious song. Everything is perfect like guitar Intro, leads and the voice of the singer. The song is sung by Aditya Narayan who is the son of Udit Narayn the great singer of his time. There are piece of guitar leads in between the song and I will cover the Intro and the lead which is played in the middle of the song. These pieces will help you to make the song more beautiful. The voice of Aditya Narayan is so sweet and I just wonder why he wants to be an actor instead of the singer. Well that’s his personal life let’s just concentrate on the song, so pick up your guitar and try the tabs which are given below.

The Intro at the beginning of the song goes like below:

Intro line 1
G|-6-8-9--6-8-6--4-6-4----4-----------------4/6-4----------|
D|-------------------------7----7--6-4-----7----------7-------|
A|---------------------------------------7----------------------|

Intro line 2
B|-------4-----------------------------------------------------|
G|-4-6-----4-6-4-----4---------------------------------------|
D|------------------7-----7-6-7-6-4-------7-7-6-------------|
A|-------------------------------------7-7---------------------|


Here is an interesting thing about this song. You can use the intro which is given above for “Kabhi na kabhi toh miloge kahi pe humko yakeen hai”. So let’s do that.

Kabhi na kabhi toh miloge kahi pe humko yakeen hai
Line1
G|-6-8-9--6-8-6--4-6-4----4----------------4/6-4----------|
D|-------------------------7----7--6-4----7----------7-------|
A|---------------------------------------7---------------------|

Kabhi,,,
Line 2
B|-------4-----------------------------------------------------|
G|-4-6-----4-6-4-----4---------------------------------------|
D|------------------7-----7-6-7-6-4-------7-7-6-------------|
A|-------------------------------------7-7---------------------|

Line 3
B|-----------------------7/9----------------------------------|
G|-66-8-99---66-8-9---------9---8----6---4----------------|

Line 4
B|-------7-4----4-4-5-7—5/7-5------------------------------|
G|-4-6-----------------------------66--5-8-5-----------------|

Repeat line 3 & 4 again to complete the first Para.
You can again start from line 1 if you need to.

Now let’s see Lead Lines in between the song (at 1:54 )

Lead Line 1
E|---------------------------12-12-11-9-9------------------------|
B|-9—9h10p9---9h10p9--------------------12--10-9-10-9--7--|


Lead Line 2
E|-----------------------11-11-9-------------------------------|
B|-7—7h9p7—7h9p7-------------12-12-10-9-7-----7--------|
G|--------------------------------------------------9-----8-----|


Second Para.

Line 5
G|-99--999--99999—11/13—9/8----------------------------|
D|--------------------------------------------------------------|

Line 6
G|-88--888--8888--9—9/11—8/6---------------------------|
D|--------------------------------------------------------------|

Line 7
G|-66-666-666--668--998-----------------------------------|
D|--------------------------------------------------------------|

Ho..
Line 8
G|-9--11—11/13--11-11/13---------------------------------|
D|-------------------------------------------------------------|

Line 9
G|-11-9-8--6-8/9--8-6--------------------------------------|
D|-------------------------------------------------------------|

Line 10
G|-11-9-8--6-8/9--8-6--------------------------------------|
D|-------------------------------------------------------------|

Line 11
G|-11-9-8-6---9-8-6---8-99-8-----------------------------|
D|------------------------------------------------------------|

Line 12
G|-9--11—11/13--11—11/13------------------------------|
D|------------------------------------------------------------|

Now repeat line 3 & 4 then line 1 & 2 to complete the song.

If you like this post then you can follow me on all social networks. Leave a comment.

7 comments:

  1. Hey will u post oopar khuda frm movie kache dhage not full tab only jitna song pe bja hai plz give me that tab hope u tell me

    ReplyDelete
  2. Latest Punjabi Songs Mp3 Download Top 20 Songs Download Free Latest Dj Mp3 Songs Download Punjabi Songs Xclusive Single Tracks.

    Latest Punjabi Songs Mp3 Download
    Wari Warsi Lyrics
    Chutki Bajana Chorde De


    ReplyDelete
  3. what does 4/6 mean in first line?

    ReplyDelete
  4. Vashikaran Specialist is a strongest strategy by which an individual can pull in and control anybody spirit and works as indicated by Vashikaran and Black Magic Specialist.

    Vashikaran Specialist
    Vashikaran Specialist in Mumbai

    ReplyDelete