Monday, 22 September 2014

Kalla Chan Guitar Tabs



Title: Kalla Chan Guitar Tabs (Punjabi Song)
Singer: Sharry Maan
Requested by: Rakshit Kapur
 
Sharry Maan earned his name so fast in the Punjabi Music industry. He has a amazing voice and his lyrics always create magic. That’s why he lives in every heart. The song Kalla Chan has very impressive music and I recommend you to watch the video as well which will help you to understand the song more. The song has some guitar leads too which are also covered in this post. There are two or three leads which are almost similar, I will present one and rest you can make on your own or you can play the lead which I will provide. So now let’s get started and enjoy this beautiful piece of music.

Tere mere pyar da gawah ban milda
G|-4444--5--5-4-7--5-4-------------------------------|
D|---------------------------7-5------------------------|

Aaj kal kothe utte kalla chan milda
G|-4-5-4----------4------------------------------------|
D|---------7---7------7-5--5-7-5-3-2-2---------------|

Repeat above two lines once more.

Jaan-2 mere kolo tere bare puchda aaa
G|-999-7-7-9/10-9-9--7-9/10-9-7-555-----4-5-7-5-4-----|
D|----------------------------------------------------------7--|

Jaan jaan mere kolo tere bare puchda
G|-999-7-7-9/10-9-9--7-9/10-9-7-555--------------|
D|-------------------------------------------------------|

Jakhma nu loon lag naal ban milda
G|-4-555-4/5-55-4/7-5-4-2--------------------------|
D|------------------------------5-----------------------|


Tere mere pyar da gawah ban milda
G|-4444--5--5-4-7--5-4-------------------------------|
D|---------------------------7-5------------------------|

Aaj kal kothe utte kalla chan milda
G|-4-5-4----------4------------------------------------|
D|---------7---7------7-5--5-7-5-3-2-2---------------|

Now let’s play the lead lines. I have done some modifications in this but you won’t feel any difference (if you are a beginner).

Lead line 1 & 2.
D|---------222-2----2—3/5--55-----------------------|
A|-2-3-5----------5-------------------------------------|

Lead line 3 & 4
G|----2-4---4/5---4-2----------------------------------|
D|-5----------------------5—3/5--3-2------------------|

Lead line 5 (to fill the gap to repeat above two lines again).
D|-3-----------------------------------------------------|
A|-----5---2---------------------------------------------|

Note: after playing 5th line just skip the first note (note 2 on A string) from line 1 & 2 and play till line 3 & 4.

Second Para. (and all further Para are similar to this.)

Note: below lines are lyrically same but the tabs are different in each line because there is variation in singing each line.

Nave Nave pyar di nishani hundi dosto hooo..
G|-7777-7/9-10-10-7-9-10-10-9-9/7/5---4-5-7-5-4----|
D|--------------------------------------------------------5--|

Nave Nave pyar di nishani hundi dosto
G|-7777-7/9-10-10-7-9-10-10-9-9-----------------------|
D|-----------------------------------------------------------|

Nave nave pyar di nishani hundi dosto
G|-7777-5/7-5-4-4-5-4------------------------------------|
D|-------------------------7-7-3----------------------------|

Nishani hundi dosto
D|--7-5-7-5-3-2-2------------------------------------------|
A|------------------------------------------------------------|

Jadon mile banda ho ke dhan dhan milda
G|-44444-5-55-4-5--7-5-4---------------------------------|
D|------------------------------7-----------------------------|

Aaj kal kothe utte kalla chan milda
G|-4-5-4----------4-----------------------------------------|
D|---------7---7------7-5--5-7-5-3-2-2--------------------|

Tere mere pyar da gawah ban milda
G|-4444--5--5-4-7--5-4-----------------------------------|
D|---------------------------7-5----------------------------|

Aaj kal kothe utte kalla chan milda
G|-4-5-4----------4----------------------------------------|
D|---------7---7------7-5--5-7-5-3-2-2-------------------|

Note: you can repeat the above Para with some modifications as per lyrics of the other Para’s of the song. Or you can just repeat playing above Para for all the Para’s of the song.

17 comments:

  1. One of the most famous American pop-songs based on Punjabi rhythms is "Get Ur Freak On" by the rapper called Missy Elliott. She released the album with the song in 2001.

    Play MP3 Songs Online | Listen Hindi Songs Online | Play English Songs

    ReplyDelete
  2. Wow that's really amazing......i really like your post and it is actually very helpful for guitar players who love to play hindi and punjabi songs..
    Download Hindi Songs | Punjabi Songs Download

    ReplyDelete
  3. I appreciate this. Sharry Maan has an amazing voice and his lyrics always unique and awesome. Carry on..

    ReplyDelete
  4. This comment has been removed by the author.

    ReplyDelete

  5. There are various online sources to provide you informative details on this topic,
    but this is one is very helpful.
    punjabi song download

    ReplyDelete
  6. Thanks for the tabs of this song. But it's a little hard for beginner's doing all those hammer on and pull of at the same time. So if anyone want to join best guitar classes in Nagpur, can contact at 8055090449. Thanks and keep on the good work. :)

    ReplyDelete
  7. Lao ji Check Karo Motion Poster of Shikaar smile emoticon Full Song with Video 7 Feb Nu a Reha Luv u All heart emoticon. Music: The Boss and Motion Poster: Team PS & Lovish Chopra by Harf Cheema.Punjabi e Jubane - Hanju - Stand Jatt Da.
    http://raagtune.jagranjunction.com/2016/02/04/harf-cheema-shikar-single-tracks-mp3-song/
    http://raagtune.net/song/gsygj118/Shikar.html

    ReplyDelete
  8. This page is the ideal online destination where you can listen to Hindi Bollywood video tunes. They are fittingly organized. Music editors select top arranging tunes of the week. Tune of the Day is in like way shared on our web sorting out fan page. We have additionally included record-breaking most revered pakistani punjabi tunes, pakistani bleak tunes, Pakistani lamentable tune punjabi mp3 , punjabi indian songs, punjabi indian tunes, old pakistani punjabi tunes, pakistani urdu tunes, Hindi punjabi tunes, pakistani hot recordings, pakistani hot tune, pakistani mujra tunes, pakistani hot mujra hd and pakistani hot movie.

    ReplyDelete
  9. for more latest punjabi songs visitpunjabi music mobile app Entertainer Jatt

    ReplyDelete
  10. Nice Post.
    For best music samples and loops
    on Indian Flutes visit mangoloops

    ReplyDelete
  11. Haryanvi Girls Hot Dance Video Girls hot dance Girls on Stage in Punjab dance.

    Girls Hot Dance

    ReplyDelete
  12. This comment has been removed by the author.

    ReplyDelete
  13. Thank for this sharing <3
    My blog: http://nhaccuonline.com

    ReplyDelete