Wednesday, 5 February 2014

Kuch Is Tarha Guitar Tabs



Title:       Kuch Is Tarha Guitar Tabs
Singer:    Aatif

Requested by: R J Saini

Aatif always sung awesome songs, don’t know how, So from the series of his hit songs today I am going to add tabs of “Kuch Is Tarha”. Of course if you guys will not request then I this blog may miss some greatest songs. So keep visiting and keep enjoying & keep rocking. I forgot to recommend this song to the beginners because the 90% of the song is on one string ( it can be played completely on single string too), so beginners must try this one.


Kuch is tarha
B-13---11---10---8--------------------------------|
G----------------------------------------------------|

Teri palkein
B-10-8--6--55--------------------------------------|
G----------------------------------------------------|

Meri palkon se mila de
B-5--6-6/8--88---6-8—8/10-----------------------|
G----------------------------------------------------|

Aasnu tere saare
B-13/11--10-8-8---6/8--5-------------------------|
G----------------------------------------------------|


Meri palkon pe saza de
B-5-6—6/8-8-8--6-8—8/10-----------------------|
G----------------------------------------------------|

You can repeat above lines once more.

Second Para.

Tu har ghadi har waqt
B-10-10-8-10------11-10-6-5---------------------|
G----------------------------------------------------|

Mere sath raha hai
B-5-6--6-8/10---6--88-----------------------------|
G----------------------------------------------------|

Haan je jism kabhi door
B-10-8-10---8-8—8/13----------------------------|
G----------------------------------------------------|

Kabhi paas raha hai
B-666—8/10--6-8-8-------------------------------|
G----------------------------------------------------|

Jo bhi gam hai yeh tere
E-12-13-10/13--12-8--10-10---------------------|
B----------------------------------------------------|

Unhe tu mera pata de
E-8--10-10--10-10--12-10/12--12---------------|
B----------------------------------------------------|

Now you can repeat from the starting. If you want to play the third Para then you need to do little modifications here and there to the second Para. I am leaving the third Para up to you guys, of course if you won’t be able to do that, then I will complete it. But if you will complete the third Para then it will be really helpful to you.

5 comments:

  1. Hey
    Can you please add the tabs for the third para.
    I will be really grateful to you.

    Thanks!

    ReplyDelete
  2. hey can u add the startup tune also plz

    ReplyDelete
  3. This comment has been removed by the author.

    ReplyDelete
  4. This comment has been removed by the author.

    ReplyDelete
  5. INTRO
    G12_14
    B13 E12 E13 E15 E12 E13
    G15 G14 G12_14
    G12 G12 G12 G10

    Thanks sir GURDIP SINGH JI

    ReplyDelete