Wednesday, 29 January 2014

Soch Guitar Tabs Hardy Sandhu (Punjabi song)



Title:       Soch Guitar Tabs
Singer:    Hardy Sandhu

Requested by:

Hey guys, I am posting after so many days, I was getting lazy (actually i must say i was busy) but now I am back again with this beautiful song. Of course in the next couple of days I am going to post some new songs and yes will take care of the pending requests too. If you understand Punjabi then this song is very well written and the music of the same is also amazing.
After getting too many requests I am going to present this song with the lyrics, and I hope I will write the lyrics in the future posts too.
Let’s be romantic & lets rock again.

See Video Lesson Here.

Hmm Hmm Hmm Hmmm
G-9--8---9/11---9---------------------------------|
D----------------------------------------------------|

Hoo Hoo hooo
G-8h9p8h9/6---5---6/8--6------------------------|
D----------------------------------------------------|

Main pyar ton vadh tenu pyar karan
G-8--999--88—9/11-11--9999--------------------|
D----------------------------------------------------|

Tenu sajda sohne lakh baar karan
G-8/9-8--666--5—6/8--8--6666------------------|
D----------------------------------------------------|


Repeat above two lines.

Je din nu aakhe tu raat mahi
G-1--1--1/13-13-11—11/13--11-9999-----------|
D----------------------------------------------------|

Ve main raat samajh aitbaar karan
G-8/9--8--666--55—6/8-8--6—2/4--2-1---------|
D----------------------------------------------------|

Main tere layi duniya nu chadeya
E------4-----4---------------------------------------|
B---------7-------555--5555-----------------------|
G-4-4------------------------------------------------|

Tere layi door apne kare
E------4-----4---------------------------------------|
B---------7-----555—5/7--55----------------------|
G-4-4------------------------------------------------|

Ve main tenu kina chaundi aa
B-5—4/5-4/5---------------------------------------|
G---------------66666-5----------------------------|

Eh gal teri soch ton pare
G-5-6/8-8-8--6-4—2/4--2-1-----------------------|
D-----------------------------------------------------|

Main saha bina saah nibha sakdi
E------4-----4---------------------------------------|
B---------7-------555--5555-----------------------|
G-4-4------------------------------------------------|

Tere bina pal vi na sare
E------4-----4---------------------------------------|
B---------7-----555—5/7--55----------------------|
G-4-4------------------------------------------------|

Ve main tenu kina chaundi aa
B-5—4/5-4/5---------------------------------------|
G---------------66666-5----------------------------|

Eh gal teri soch ton pare
G-5-6/8-8-8--6-4—2/4--2-1-----------------------|
D-----------------------------------------------------|

Second Para.

Akhiyan ch har vele tera mukh ve
E-4---4---4---4--------------------------------------|
B---7---7---7---7----------5-------------------------|
G--------------------4-66------4---------------------|

Pa ke tenu tutde ne sare dukh ve
E-4---4---4---4--------------------------------------|
B---7---7---7---7----------5-------------------------|
G--------------------4-66------4---------------------|

Deed teri da eh nazara
G-22-2/6--6--555—6/8--8--------------------------|
D-----------------------------------------------------|

Na pyas lage te na lagge bukh ve
B---------5/9--7-9---55555-------------------------|
G-44--8----------------------------------------------|

Repeat above four lines if you need.

Tere bina aaun na supne
E------4-----4---------------------------------------|
B---------7-------555--5555-----------------------|
G-4-4------------------------------------------------|

Supne vi jhidak ke main dhare
E------4-----4---------------------------------------|
B---------7-----555—5/7--55----------------------|
G-4-4------------------------------------------------|

Ve main tenu kina chaundi aa
B-5—4/5-4/5---------------------------------------|
G---------------66666-5----------------------------|

Eh gal teri soch ton pare
G-5-6/8-8-8--6-4—2/4--2-1-----------------------|
D-----------------------------------------------------|

Ve tere bina raha mere yaara
E------4-----4---------------------------------------|
B---------7-------555--5555-----------------------|
G-4-4------------------------------------------------|

Manzila nu jaan ton ne dare
E------4-----4---------------------------------------|
B---------7-----555—5/7--55----------------------|
G-4-4------------------------------------------------|

Ve main tenu kina chaundi aa
B-5—4/5-4/5---------------------------------------|
G---------------66666-5----------------------------|

Eh gal teri soch ton pare
G-5-6/8-8-8--6-4—2/4--2-1-----------------------|
D-----------------------------------------------------|

Now repeat from the beginning. Third Para is same as Second Para.
Enjoy.

2 comments:

  1. Thks dr..it is just awesome :*

    ReplyDelete
  2. Very Nice ..... For more Detail about Soch Bichar join Prime institute

    ReplyDelete