Thursday, 24 April 2014

Woh Lamhe Guitar Tabs



Title: Woh lamhe guitar tabs
Movie: Zehar
Singer: Atif Aslam
Requested by: Yogi Kumar
I heard this song after a long time & believe me the song is so soft & romantic/sad. I know, you all know this song very well but the good news is that the song is very easy to play on guitar. Even the beginners can play it. Okay, the song is acoustic friendly and as per my thinking it will sound good on acoustic guitar. It is very slow.
You can make it more magical with your feelings, so when you will play it just remember those good days of your life and let your fingers fly on the fretboard. You can also watch the video if you need to. Of course my videos are just for checking how the song actually sounds because I don’t have proper time to practice every song deeply and without practice you can’t make real feelings while playing the guitar.
So let’s now play the tabs of this beautiful song.


Woh lamhe, woh baatein
B|-5p4-------4--------5p4-------4----------------|
G|--------6-------------------6--------------------|

Koi na jaane
B|-4/2/5--4---------------------------------------|
G|-------------4--3--------------------------------|

Thi kaisi raatein
B|-55-4------4------------------------------------|
G|---------6---------------------------------------|

Hoo barsaatein
G|-6-4-3---3-4—3/4—3/1-----------------------|
D|-------------------------------------------------|

Wo bheegi bhegi yadein
B|-------------2-----------------------------------|
G|-1-1--3-4------3—1/3--1----------------------|
D|------------------------------4------------------|


Wo bheegi bheegi yaadein
B|-------------2-----------------------------------|
G|-1-1--3-4------3---1/3v-----------------------|
D|-------------------------------------------------|

Now you can repeat above all lines to feel the song.

Second Para.

Na main jaanu
G|---------4-3------------------------------------|
D|-4--6-------------------------------------------|

Na tu jaane
B|-4p2—5/4--------------------------------------|
G|--------------4-3-------------------------------|

Kaisa hai yeh mausam
G|--------------4-3-------------------------------|
D|-4--6---66-------------------------------------|

Koi na jaane
B|-4p2--5-4--------------------------------------|
G|-------------4-3--------------------------------|

Kahin se yeh fiza aayi
B|------------7-5-4-------------------------------|
G|-33-444----------------------------------------|

Gamo ki dhoop sang layi
B|-----------77--5-4-----------------------------|
G|-33-444---------------------------------------|

Khafa ho gaye hum
B|-4—4/2--5-4-----------------------------------|
G|-----------------4---4/6------------------------|

Juda ho gaye hum
B|-4-4/2--5-4------------------------------------|
G|---------------4-4/6----------------------------|
D|-------------------------8686-4----------------|

Woh lamhe, woh baatein
B|-5p4-------4--------5p4-------4----------------|
G|--------6-------------------6--------------------|

Koi na jaane
B|-4/2/5--4---------------------------------------|
G|-------------4--3--------------------------------|

Thi kaisi raatein
B|-55-4------4------------------------------------|
G|---------6---------------------------------------|

Hoo barsaatein
G|-6-4-3---3-4—3/4—3/1-----------------------|
D|-------------------------------------------------|

Wo bheegi bhegi yadein
B|-------------2-----------------------------------|
G|-1-1--3-4------3—1/3--1----------------------|
D|------------------------------4------------------|

Wo bheegi bheegi yaadein
B|-------------2-----------------------------------|
G|-1-1--3-4------3---1/3v-----------------------|
D|-------------------------------------------------|

2 comments:

  1. Nice tab Gurdip, enjoyed playing this one. You're right, it goes well with the acoustic guitar.

    ReplyDelete
    Replies
    1. Thanks for letting others know that it sounds good on Acoustic Guitar. Keep Rocking.

      Delete