Wednesday, 30 April 2014

Kya Hua Tera Wada Guitar Tabs



Title: Kya hua tera wada guitar tabs
Movie: Hum kisise kum naheen
Requested by: Raj
 
This is a beautiful song which needs no description because everyone knows very well about this. So coming directly to the playing techniques first, the intro lines having lots of hammers and pull offs (if you don’t know about hammers and pull offs then check the basics section of this blog) so you need to learn that if you don’t know already. At some points you need to move your fingers here and there so fast so it will take little practice to get that speed. There are lots of slides also which I use frequently in my playing style. So enough talking, now let’s learn to play the song. Oh by the way if you get confused at some points then you can check the video lesson on my youtube channel.


Intro line 1
B|-----------------3----------3----------------------|
G|------2----2-2-------2-2-------5--3--------------|
D|-0-0-----------------------------------------------|

Intro line 2 (see video for more details)
G|-3h5p3—3h5p3—3h5p3—3h5p3----------------|
D|----------------------------------------------------|

Intro line 3 (see video for more details)
G|-2h3p2—2h3p2—2h3p2—2h3p2----------------|
D|----------------------------------------------------|


Kya hua tera wada
G|-2-3/5--3-2-----2-5-----------------------------|
D|---------------5-----------------------------------|

Wo kasam wo irada
G|-2-5-5/7-5/3-2------2-5-------------------------|
D|-------------------5-------------------------------|

Kya hua tera wada (play little faster than starting)
G|-2-5-5-3-2------2-5------------------------------|
D|--------------5------------------------------------|

Wo kasam wo irada
G|-2-5-5/7-5/3-2------2-5-------------------------|
D|-------------------5-------------------------------|

Bhulega dil jis din tumhe
G|----------------------2----------------------------|
D|-222-3------2-2-3------3------------------------|
A|----------3----------------------------------------|

Wo din zindgi ka aakhri din hoga
D|-3-5/7-5555--5-7-5/7-5/8-7-7-----------------|
A|---------------------------------------------------|

Kya hua tera wada
G|-----5-5/3--2-----2-5---------------------------|
D|--7-------------5---------------------------------|

Wo kasam wo irada
G|-2-5-5/7-5/3-2------2-5-------------------------|
D|-------------------5-------------------------------|

SECOND PARA

Yaad hai mujhko, tune kaha tha
B|-6-5---------6-6-5--------------------------------|
G|-------777-----------7-7--------------------------|

Tumse nahi ruthenge kabhi
G|-7-7--7-5/9-7/5-5/9-7-5-5----------------------|
D|----------------------------------------------------|

Dil ki tarha se, aan mile hain
B|-6-6-5--------6-5---------------------------------|
G|---------7-7--------7-7---------------------------|

Kaise bhala chutenge kabhi
G|-7-7--7-5/9-7/5-5/9-7-5-5----------------------|
D|----------------------------------------------------|

Teri baahon mein beeti har shaam
D|-7—8/10-8/7-5h8-7/5-3-5/7-5-3-5-------------|
A|----------------------------------------------------|

Bewafa je bhi kya yaad nahi
G|-3-2-3p2-2-----2---------------------------------|
D|--------------5-----5—3p2-----2-3---------------|
A|------------------------------5---------------------|

Kya hua tera wada
G|-2-3/5--3-2-----2-5-----------------------------|
D|---------------5-----------------------------------|

Wo kasam wo irada
G|-2-5-5/7-5/3-2------2-5-------------------------|
D|-------------------5-------------------------------|

And the song continues again. Happy Playing & Keep Rocking!!!

2 comments: