Monday, 23 December 2013

Asmani Rang Ho Guitar Tabs Dil Mil Gaye



Title:       Asmani Rang Ho Guitar Tabs
Tv Show: Dil Mil Gaye 

Requested by: Shreshth Mohan

This song is used in the Tv Show called Dil Mil Gaye. I had never listen this song before but after a request of doing tab of this song, I had to listen it. The song has very simple and sweet music. If you watched the show ( I don’t ) and you are a guitar player then probably you want to try this song on your guitar.  For all others who never watched this show like me, I recommend this song, just listen it once and you will love it because of its simplicity and lyrics. Also if you are interested in this kind of songs which are themes of Tv shows then you would also like to check “Aahtein” song which I tabbed earlier from Splitsvilla4 (Mtv show).

There are two versions, one is sung by boy and another is sung by a girl. I will tab both, first check the boy’s version.

First Let's See How to play Boy's version.
 
Asmani Rang Ho
Line 1
G|-22—2/3---5-3-2-----------------------------------|
D|---------------------5--------------------------------|


Line 2
D|-55—5/7--5--33------------------------------------|
A|------------------------------------------------------|

Line 3
G|-22-2/3----5-3-2-----------------------------------|
D|---------------------5-------------------------------|

Line 4
D|-55---5/7-7--5-33---------------------------------|
A|-----------------------------------------------------|

Line 5
G|-5/7--5-3------------7/8--8-10--7-7-5-----------|
D|--------------5----5--------------------------------|

Line 6
G|-5/7--5-3-------2-2-3-----------------------------|
D|-------------5--------------------------------------|

Line 7
G|-5/7--5-3-------7/8--8-10-7----------------------|
D|-------------5--------------------------------------|

Line 8
G|-5/7--5-3------2-2—2/5---3----------------------|
D|-------------5---------------------------------------|

Tra ta ra ra
Line 9
G|-777--55--7---------------------------------------|
D|----------------------------------------------------|

Line 10
G|-888---10-8-7-5-----------------------------------|
D|-----------------------------------------------------|

Line 11
G|-777--5---3--------2-2---3------------------------|
D|----------------5-----------------------------------|

Line 12
G|-777--55--7---------------------------------------|
D|----------------------------------------------------|

Line 13
G|-888---10-8-7-5-----------------------------------|
D|-----------------------------------------------------|

Line 14
G|-777--5---3--------2-2---3------------------------|
D|----------------5-----------------------------------|


NOW LET’S SEE GIR’L VERSION.

Asmaani rang hoon
Line 1
E|-55—5/6---8-6-5----------------------------------|
B|---------------------8------------------------------|

Line 2
B|-88—8/10--8--66----------------------------------|
G|-----------------------------------------------------|

Line 3
E|-55—5/6---8-6-5----------------------------------|
B|---------------------8------------------------------|

Line 4
B|-88—8/10--8--66----------------------------------|
G|-----------------------------------------------------|

Line 5
E|-10-10--8-6-------------11-11--13--10-----------|
B|---------------8------8------------------------------|

Line 6
E|-10-10-8-6-------5-5-6----------------------------|
B|----------------8------------------------------------|

Line 7
E|-8/10--8-6-----------11-11-13-10----------------|
B|--------------8----8--------------------------------|

Line 8
E|-8/10--8-6-------55---6/8--6---------------------|
B|---------------8------------------------------------|

Tra ta ra ra
Line 9
E|-10-10-10---88-10--------------------------------|
B|-----------------------------------------------------|

Line 10
E|-11-11-11--13--11---10-8-----------------------|
B|----------------------------------------------------|

Line 11
E|-10-10-10--8-6------5-5-6-----------------------|
B|-------------------8--------------------------------|

Line 12
E|-10-10-10---88-10--------------------------------|
B|-----------------------------------------------------|

Line 13
E|-11-11-11--13--11---10-8-----------------------|
B|----------------------------------------------------|

Line 14
E|-10-10-10--8-6------5-5-6-----------------------|
B|-------------------8--------------------------------|

If you like it, then share it with others who are the lovers of this show. Please Comment.

1 comment: