Sunday, 22 December 2013

Hum Jee Lenge Guitar Tabs Murder 3

Title: Tere Bina Hum Jee Lenge Guitar Tabs
Movie: Murder 3
 
Requested by: Aman Kumar
 
“Hum Jee Lenge” is a very nice song from the movie Murder3. The song is sung by Roxen Band and Mustfa Zahid and I must say the composing of this song is truly guitar based. You will love the intro and I know many of you were looking for the Intro. So the wait is over, in this song I will also tab the intro and without the intro parts the song is incomplete. You can play this song on many places but I tabbed this song on comfortable zone of beginner guitarist. Because the main motive of this blog is to provide the material that beginner guitarist are looking for.
There are too many beautiful songs that I have to tab yet and this will possible because of all visitors of this blog. So guys if you feel some beautiful songs are not present on this blog then please ask me to add in comment section.

First of all let’s see how to play Intro of Hum Jee Lenge.

Intro line 1
A|-------------1--------1--------1-3-1-----------------------|
E|-1--3---44-----4-3--------------------4-3-----------------|


Intro line 2
A|------------1-----------1---3-4-3--1-----------------------|
E|-1---3-44-----4-3----------------------4----1-------------|

 
The above intro is similar to original which is played in the song.
If you are a beginner then you can also play the Intro like given below.
There is no need to stretch your hand while playing below intro.

Easy Intro Line 1
G|---------------------------------5--------------------------|
D|-----5-66----8-6-5-8----8-8------8-6-5-----------------|
A|-8----------------------------------------------------------|


Easy Intro Line 2
G|--------------------------5-6-5----------------------------|
D|----5-6-6----8-6-5-8-------------8-6--------------------|
A|-8-----------------------------------------8---------------|


Now Let’s Start tabbing the Song:
The song will sound good when you will combine line 1 & 2

Yeh mere dil ka jaana, Ik aakhri faisla hai (make set of lines like this)
Line 1
G|-5-5------5-5-6-5------------------------------5------------|
D|-------8-------------8--------8-8-6-8----8-8------8-6------|

Line 2
D|-66-5-666--8-6-5-----55------55--6-5---------------------|
A|------------------------------8-------------
8-----------------|

Note: Maintain a good speed for accuracy. On red notes take a very short pause.
listen the song for more accuracy.

Note: Line 3, 4 & 5,6 are similar to line 1 & 2.

Line 3
G|-5-5------5-5-6-5------------------------------5------------|
D|-------8-------------8--------8-8-6-8----8-8------8-6------|

Line 4
D|-66-5-666--8-6-5-----55------55--6-5---------------------|
A|------------------------------8-------------
8-----------------|

Line 5
G|-5-5------5-5-6-5------------------------------5------------|
D|-------8-------------8--------8-8-6-8----8-8------8-6------|

Line 6
D|-66-5-666--8-6-5-----55------55--6-5---------------------|
A|------------------------------8-------------
8-----------------|
 
Tanhayi Ka
Line 7
G|-13-13--12-12—10/8---------------------------------------|
D|--------------------------------------------------------------|

Line 8
G|-13-13-12-13-13--12---10----8----6----------------------|
D|--------------------------------------------------------------|

Line 9
G|-66-5-6-5--------------------------------------------------|
D|-------------8-8/10---10-10-8-10-10-8-10---------------|

Tere Bina
Line 10
G|-8---5/3/5-------------------------------------------------|
D|---------------6-5/6----------------------------------------|

Note: to play 5/3/5, strike the 5th note then slide to 3 and slide back to 3rd note. All this you have to do in one strike.

Note: From line 11 to 13 and 14 to 16 are similar to line 10.

Hum Jee Lenge
Line 11
G|-8---5/3/5-------------------------------------------------|
D|---------------6-5/6----------------------------------------|

Line 12
G|-8---5/3/5-------------------------------------------------|
D|---------------6-5/6----------------------------------------|

Line 13
G|-8---5/3/5-------------------------------------------------|
D|---------------6-5/6----------------------------------------|

Line 14
G|-8---5/3/5-------------------------------------------------|
D|---------------6-5/6----------------------------------------|

Line 15
G|-8---5/3/5-------------------------------------------------|
D|---------------6-5/6----------------------------------------|

Line 16
G|-8---5/3/5-------------------------------------------------|
D|---------------6-5/6----------------------------------------|

Line 17
G|-8—5/3/5--------------------------------------------------|
D|--------------6-5/6---------6----5---3--------------------|

Now Let’s Tab Second Para.

Line 18
G|-8---8/10---13-12----10-8------------------------------|
D|-----------------------------------------------------------|

Note: in above line play 10-8 very quickly.
From line 19 to 20 & 22 to 24 are similar to line 18.

Line 19
G|-8---8/10---13-12----10-8------------------------------|
D|-----------------------------------------------------------|

Line 20
G|-8---8/10---13-12----10-8------------------------------|
D|-----------------------------------------------------------|

Line 21
G|-5---5/6--5---3/5---------------------------------------|
D|----------------------------------------------------------|

Line 22
G|-8---8/10---13-12----10-8------------------------------|
D|-----------------------------------------------------------|

Note: in above line play 10-8 very quickly.

Line 23
G|-8---8/10---13-12----10-8------------------------------|
D|-----------------------------------------------------------|

Line 24
G|-8---8/10---13-12----10-8------------------------------|
D|-----------------------------------------------------------|

Line 25
G|-5---5/6--5---3/5---------------------------------------|
D|----------------------------------------------------------|

For next couple of line you can start playing the song again because it has same music like the starting Para. Okay lets carry on.

Line 26
G|-5-5------5-5-6-5------------------------------5------------|
D|-------8-------------8--------8-8-6-8----8-8------8-6------|

Line 27
D|-66-5-666--8-6-5-----55------55--6-5---------------------|
A|------------------------------8-------------
8-----------------|

Line 28
G|-5-5------5-5-6-5------------------------------5------------|
D|-------8-------------8--------8-8-6-8----8-8------8-6------|

Line 29
D|-66-5-666--8-6-5-----55------55--6-5---------------------|
A|------------------------------8-------------
8-----------------|

Line 30
G|-13-13--12-12—10/8--------------------------------------|
D|--------------------------------------------------------------|

Line 31
G|-13-13--12-13-13-12-10-8-6------------------------------|
D|--------------------------------------------------------------|

Must check below line with little variations.

Line 32
G|-6-6--5-6-5------------------------------------------------|
D|----------------8-8-6---------------------------------------|

Line 33
D|-10-10--8-10-10--8-10-----------------------------------|
A|-------------------------------------------------------------|

Now you can play from line 10 to 17 to complete the song.

Wait ! There are also some variations at the end of the song in wording “tere bina” and so on.
Let’s see that and end the song.
 
Tere bina
Line 34 to 36.
G|-8—8/10--13-12---10/8--------------------------------|
D|-----------------------------------------------------------|

Play above line three times (lyrics are different of remaining two lines.)

Line 37
G|-5----5/10---5/3/5--------------------------------------|
D|-----------------------------------------------------------|

Now again repeat line 34 to 37 then repeat from 10 to 17.
 
That’s the complete song guys. I hope you will enjoy this song. Please comment if you like and join me on all social networks for instant help.

There’s lot of hard work involved so at least leave a comment if you like.

10 comments:

  1. wat is the strumming pattern of this song ????

    ReplyDelete
  2. Hi Aman
    You don't need to strum, these are tabs buddy.

    ReplyDelete
  3. i know it is a tab. but if want to play this song along with the chord then what will b its strumming pattern.

    ReplyDelete
    Replies
    1. Ok I didn't know that. So you can use DDUUUD DU.

      Delete
  4. awesome dude, keep up the good work!

    ReplyDelete
  5. Could u pls upload video ....i am not gettin the tabs

    ReplyDelete
  6. Could u pls upload video ....i am not gettin the tabs

    ReplyDelete
  7. pretty helpful.thanks a lot mate

    ReplyDelete