Tuesday, 31 December 2013

Chand Chupa Badal Mein Guitar Tabs HDDCS



Title:       Chand Chupa Badal Mein Guitar Tabs
Movie:     Hum Dil De Chuke Sanam

Requested by: Aziz

Hey Guys due to some problems I couldn’t post the song from so many days but don’t worry I will post all the requests as well as new songs soon, may be at the end of this week. 
The song “Chand Chupa Badal Mein” is from the movie “Hum Dil De Chuke Sanam” and has a romantic taste. The song has a very beautiful intro and some guitar pieces here and there in the song but for now I am skipping all those parts. I am posting this song in hurry but don’t worry the song is accurate but without the intro and other instruments. The song is duet so you can experiment with the girl and boy part (Ex; you can play the girls part on  B & E strings). So here we will take a quick look at the song.   


Chand chupa badal mein
Line 1
G-7------77-----------------------------------------|
D-----4--------4--5-4-------------------------------|
A--------------------------7-------------------------|

Line 2
G-6-------6-----7-6----44--------------------------|
D----------------------------------------------------|
A-----7----------------------------------------------|


Play above two lines slowly, like the singer sung it.

Chand chupa badal mein
Line 3
G-7------77-----------------------------------------|
D-----4--------4--5-4-------------------------------|
A--------------------------7-------------------------|

Line 4
G-6-------6------------------------------------------|
D-------------------4------------4----99--11-------|
A-----7--------77-----7---5-7-----------------------|

Line 5
G-7------7-------------------------------------------|
D-----4--------44-5/4-------------------------------|
A---------------------------7-------------------------|

Line 6
G-6-------6-----7-6----44--------------------------|
D----------------------------------------------------|
A-----7----------------------------------------------|

Gum sum sa hai
Line 7
G-3/4---6-4-6---------------------------------------|
D-----------------------------------------------------|

Line 8
G-3/4---6-4-6---------------------------------------|
D-----------------------------------------------------|

Line 9
G-3/4---7-6-7-----3/4----7-6-7-------------------|
D----------------------------------------------------|

Line 10
G-7/11--999-----9/11--9-66------6/4—4/6—4-3--|
D------------------------------------------------------|

Ho ho Chand chupa badal mein
Line 11
G----4-6-----7------77----------------------------|
D-4--------------4--------4-5-4--------------------|
A-----------------------------------7---------------|

Line 12
G-6-------6------------------------------------------|
D-------------------4------------4----99--11-------|
A-----7--------77-----7---5-7-----------------------|

Line 13
G-7------7-------------------------------------------|
D-----4--------44-5/4-------------------------------|
A---------------------------7-------------------------|

Line 14
G-6-------6-----7-6----44--------------------------|
D----------------------------------------------------|
A-----7----------------------------------------------|


Second Para

Line 15
G-----------4---------------------4------------------|
D--4-5--7-----7---------4-5--7-----7---------------|

Line 16 (Girl ignoring)
E-10-9--77------------------------------------------|
B-------------10-10---10-8---10-10-8-7-----------|

Line 17
G-----------4---------------------4------------------|
D--4-5--7-----7---------4-5--7-----7---------------|

Line 18 (Girl ignoring)
E-10-9--77------------------------------------------|
B-------------10-10---10-8---10-10-8-7-----------|

Line 19 (Girl)
E-7/6--6-----99-------12/10-10-9--10—10/9-----|
B----------7------------------------------------------|

Line 20 (Boy)
E—9/6-6-----999-----9/12--15-14--10-10---------|
B----------7------------------------------------------|

Line 21 (Girl)
E-7/9--10-9—7-7------------------------------------|
B--------------------10-10-10--8-10--10-8--7------|

Now you can repeat from line 11 to 14 to complete it.

Also Check:

2 comments:

  1. where can i get the inro of this song

    ReplyDelete
  2. Can u make it this song on single string

    ReplyDelete