Monday, 6 January 2014

Jadu Teri Nazar Guitar Tabs Darr



Title:       Jadu Teri Nazar Guitar Tabs
Movie:    Darr

Requested by: Aditya Lamba

I think the old songs were much better then now. Because the songs were simple and meaningful.
I am not saying that today’s music is not good; I really enjoy the beats and all the songs.
Anyways the song Jadu teri nazar is a beautiful song, and if I am not wrong then every guitarist wants to play either chords or tabs of this song once in his life. The song has a beautiful intro which is little tricky to play but I made it simple for beginners. Still if you feel there is something missing then you can add more notes ( you can increase notes from the existing onces, you can add tremolo effect here and there). But as far as I can understand you will not find any problem in the given notes.

Let’s see the Intro tabs of Jadu teri nazar.

Intro line 1
G----6---6666---4-6--4-2-1-------------------------|
D-4---------------------------------------------------|

Intro line 2
G----4--4444---2-4---2-1---------------------------|
D-2---------------------------4-----------------------|


You can repeat the above intro lines by modifying them or as it is.
Now let’s start tabbing the song.

Jadu teri nazar
Line 1
G-----6—4/6--4--2--1-------------------------------|
D-4---------------------------------------------------|

Line 2
G------4---2/4--2-1---------------------------------|
D-22---------------------4--0------------------------|

You can repeat line 1 & 2 once again.

Line 3
G-------2---1-----------------------------------------|
D-2---------------------------------------------------|

Line 4
G--------1---------------------------------------------|
D---2--------4-----------------------------------------|

Line 5
Repeat line 3 & 4 by combining them.

Tu hai meri kiran
Line 6
G--------7—7/9--7--6---------------------------------|
D--44--------------------------------------------------|

Repeat line 6 two times.

Second Para.

Line 7
G-2-4-2-----------------------------------------------|
D---------2-4-2-2---4-2------4----------------------|
A---------------------------5--------------------------|

Line 8
G------7—7/9-7--66--4-2--4--2--------------------|
D-44--------------------------------------------------|

Repeat line 7 & 8 once again.

Line 9
G-6-9-7--6-4-6--4-2--4—4/6-----------------------|
D------------------------------------------------------|

Line 10
G-6/7--6--4-4--6-4-2--1------1---------------------|
D----------------------------4------4---0-------------|

Now again repeat from line 3 to 6 to complete the second Para.
As usual the third Para is similar to 2nd Para. So enjoy playing it.

No comments:

Post a Comment