Friday, 3 January 2014

Mat Aazma Re Guitar Tabs Murder 3

Title:       Mat Aazma Re Guitar Tabs
Movie:     Murder 3

Requested by: Adtiya Dey

While making the tabs of this song I realize that I tabbed this song before (when the movie was released). Those were the days when I was making the tabs but I was not writing them. There was a craze to play each and every song but I never care to write them. I did not even think to share them with someone because there were not so many people who were interested in playing guitar (in my neighborhood). But now while writing these tabs I am thinking if I were writing them at that time, many people could take advantage of the same. 
Anyways the idea of writing and sharing with all of you came to my mind and that’s why I started this blog. And now I am happy to see that many of my friends are learning their favorite songs & I am not wasting my work, knowledge & energy.
Mat Aazma Re is not very fast song but there are too many lyrics, and because of that we have to use so many notes. So listen the song carefully and try each line with the song to play it accurately. So let’s start tabbing the song.

There is a beautiful intro played on violin in the beginning of Mat aazma re song. Let’s see the notes of the intro part.

Intro line 1 (play two times)
G-5--7--8--7---5--3------------------------------------|
D---------------------------------------------------------|

Intro line 2
G-5-7-8-7--5-3--1-----5-7-8-7---8-10-----------------|
D---------------------------------------------------------|

Note: Line 2 is little tricky, listen the song carefully to catch it correctly.

Intro line 3 (play two times)
G-5--7--8--7---5--3-------------------------------------|
D---------------------------------------------------------|

Intro line 4
B-------------------8-------8-9-8------------------------|
G-5-7-8-7--8-10-----8----------------------------------|

Now the song starts.

Mat aazma re

Line 1
G-55-3-5—5/7--5----------------------------------------|
D----------------------------------------------------------|

Line 2
G-55-3-5—5/7--5----------------------------------------|
D----------------------------------------------------------|

Line 3
G-55-3-5—5/7--5-------1-----1--1---5-5---------------|
D----------------------------------------------------------|

Line 4
G-55-3-5—5/7--5----------------------------------------|
D----------------------------------------------------------|

Line 5
G-55-3-5—5/7--5----------------------------------------|
D----------------------------------------------------------|

Line 6
B----------------------------------------------3-4--------|
G-55-3-5—5/7--5-------1-----1--1---5-5---------------|

Hasratein baar2 baar2 yaar ki karo
Line 7
B-443---6443--6443---64463--------------------------|
G---------------------------------------------------------|

Line 8
B--33------433-----433------4334----------------------|
G------5--------5---------5----------5-------------------|

Line 9
B-443---6443--6443---64463--------------------------|
G---------------------------------------------------------|

Line 10
B--33------433-----433------4334----------------------|
G------5--------5---------5----------5-------------------|

Second Para


Line 11
B---------------------4-4---------------------------------|
G-3-5--3-5---3-3----------------------------------------|

Line 12
B--------------------6-6----------------------------------|
G-3-5--3-5--3-3-----------------------------------------|

Line 13 & 14
E------333--4-3-------------3---------------------------|
B------------------6-4-----------6-4-----6-4-3----------|
G--3------------------------------------------------------|

Line 15
B---------------------4-4---------------------------------|
G-3-5--3-5---3-3----------------------------------------|

Line 16
B--------------------6-6----------------------------------|
G-3-5--3-5--3-3-----------------------------------------|

Line 17 & 18
E------333--4-3-------------3---------------------------|
B------------------6-4-----------6-4-----6-4-3----------|
G--3------------------------------------------------------|

Now to complete Second Para repeat from line 7 to 10.

Third Para

Line 19
G----5---------------------------------------------------|
D-5-----8-6---5-5-------5------------------------------|
A---------------------8----------------------------------|

Line 20
G-----7-5-----------------------------------------------|
D-5---------8--6-6---5--6-----------------------------|

Line 21
G----8----7-8--7-8--7-8/10---8—7/5--3—5/7-------|
D-6-----------------------------------------------------|

Now for next couple of lines you can repeat from line 19 to 21 because the music of next 9 lines are similar to above mentioned three lines. The lyrics are different but you don’t concentrate on that just play above 3 lines 3 times more. Then you can repeat from line 7 to 10 once again. This is the complete song. If you like it please comment and share with your friends. If you find this post useful then you can help others by sharing the same with them. 

Also Check:
Hum Jee Lenge Guitar Tabs from Murder 3 

4 comments:

  1. Luvd playin dis song...bt can u plz a video for dis tabs...cz i m gettin d lines....but not d tempo to b played...plz also add sm filling intro to dis song which starts wid sm violin stuff i guess....thnx for d beautiful tn luvly song tabs...thnx sir bst regards

    ReplyDelete
    Replies
    1. Hi Shekhar
      The intro part is now added in the song. I am not promising but I will add the video lesson soon. And thanks for visiting.

      Delete
  2. thnx alot sir for ur anticipation n it jus spiced up dis luvly song..... i hv been visiting ur site {old site} for past 3 months neva had a single error wid ur tabs....thnx again...bst regards

    ReplyDelete
    Replies
    1. Thanks Shekhar, your feedback will help me a lot. Keep visiting in the future also & keep rocking.

      Delete