Saturday, 29 March 2014

Uska Hi Bana Guitar Tabs



Title: Uska Hi Bana Guitar Tabs/ Aye khuda Guitar Tabs
Movie: 1920-Evil Returns
Requested by: Ajinkya Chitlekar

This song is from those times when very few people knew about Arijit. The song is very easy to play because there is much time between notes to rest your hands. You can also play the song on below two strings of guitar if you have the acoustic guitar because some people love the sound of B & E strings.
Let’s now have a look at the guitar tabs of Aye khuda or Uska hi bana. 

Meri kismat ke
G|----------5-------------------------------------------|
D|--5--6--------6--5-----------------------------------|

Har ek panne pe
G|------------5-----------------------------------------|
D|--5---6----------6---5-------------------------------|

Mere jeete jee
G|----------5-------------------------------------------|
D|--5--6--------6---5/3-------------------------------|

Baad marne ke
G|-----------5------------------------------------------|
D|--5---6---------6---5/3-----------------------------|

Mere har ek pal
G|---------7-5-----5/7--/10---------------------------|
D|-5--6-------------------------------------------------|

Har ek lamhe mein
G|-7--5----5-7-----7—5------------------------------|
D|------------------------------------------------------|

Tu likh de mera use
G|-7--5------------------------------------------------|
D|---------8-8--6----8/10---10—9/5-----------------|

Below Para have similar lines as above.

Har kahani mein
G|----------5-------------------------------------------|
D|--5--6--------6--5-----------------------------------|

Sare kisson mein
G|------------5-----------------------------------------|
D|--5---6----------6---5-------------------------------|

Dil ki duniya ke
G|----------5-------------------------------------------|
D|--5--6--------6---5/3-------------------------------|

Sache rishton mein
G|-----------5------------------------------------------|
D|--5---6---------6---5/3-----------------------------|

Zindgani ke
G|---------7-5-----5/7--/10---------------------------|
D|-5--6-------------------------------------------------|

Sare hisson mein
G|-7--5----5-7-----7—5------------------------------|
D|------------------------------------------------------|

Tu likh de mera use
G|-7--5------------------------------------------------|
D|---------8-8--6----8/10---10—9/5-----------------|

Aye khuda
G|-5--7---8/12v--------------------------------------|
D|------------------------------------------------------|

Aye khuda
G|-2---4----4---2-------------------------------------|
D|------------------------------------------------------|

Jab bana uska hi bana
B|------4-4----4---------------------------------------|
G|-3---------------3--------3--------------------------|
D|----------------------6----------6--5----------------|

Aye khuda
G|-5--7---8/12v--------------------------------------|
D|------------------------------------------------------|

Aye khuda
G|--10--8---5/7----5/3-------------------------------|
D|------------------------------------------------------|

Jab bana uska hi bana
B|------4-4----4---------------------------------------|
G|-3---------------3--------3--------------------------|
D|----------------------6----------6--5----------------|

Second Para.

Uska hoon, usmein hoon
B|-888-------------------------------------------------|
G|-------10---8-7-10-10------------------------------|

Usey hoon, usi ka rehne de
B|-8-----------8---------------------------------------|
G|----10-10------8--7----7---8-8--------------------|

Main toh payasa hoon, hai dariya
B|-888-------------------------------------------------|
G|--------10--8-7---10-10-10------------------------|

Woh zariya woh jeene ka mere
B|-8---------------8-----------------------------------|
G|----10-10-10--------8--7----5/7---5-5------------|

Mujhe ghar de gali de
B|-888-------------------------------------------------|
G|-------10---8-7--10-10-----------------------------|

Shehar de usi ke naam pe
B|-8-----------8--------------------------------------|
G|-----10-10------10/12---8/7---7--8-8------------|

Kadam yeh chale ja
B|-8-8------------------------------------------------|
G|-------10---8-7---10-10---------------------------|

Ruke ab usi ke vaste
B|-8------------8-------------------------------------|
G|-----10-10------8--7---5/7---5-5-----------------|

Dil mujhe de agar
G|-5--3—5/7---7-5---7/8---------------------------|
D|-----------------------------------------------------|

Dard de uska par
G|-8-7—8/10---12-13-12---------------------------|
D|-----------------------------------------------------|

Uski ho wo hasi
G|-5--3—5/7---7-5---7/8---------------------------|
D|-----------------------------------------------------|

Gunje jo mere ghar
G|--8-7---8/10--12-13-12-------10-8-7------------|
D|-----------------------------------------------------|

Aye khuda
G|-5--7---8/12v--------------------------------------|
D|------------------------------------------------------|

Aye khuda
G|-2---4----4---2-------------------------------------|
D|------------------------------------------------------|

Jab bana uska hi bana
B|------4-4----4---------------------------------------|
G|-3---------------3--------3--------------------------|
D|----------------------6----------6--5----------------|

Aye khuda
G|-5--7---8/12v--------------------------------------|
D|------------------------------------------------------|

Aye khuda
G|--10--8---5/7----5/3-------------------------------|
D|------------------------------------------------------|

Jab bana uska hi bana
B|------4-4----4---------------------------------------|
G|-3---------------3--------3--------------------------|
D|----------------------6----------6--5----------------|

So this is the complete song. You can tab the third Para similar way or you can play as it is. But as per my opinion the third Para is different because the first few lines have some high notes whereas the second Para uses the lower notes.

No comments:

Post a Comment