Tuesday, 11 March 2014

Zehnaseeb Guitar Tabs

Title: Zehnaseeb Guitar Tabs
Movie: Hasee Toh Phasee
Posted on Request


Zehnaseeb is a romantic track from the movie Hasee to Phasee. The song is melodic so it is perfect to play on the guitar. The first Para is simple and easy to play but you need to concentrate on speed (not too much) while playing second Para. To play the second Para accurately just practice it slowly, although it is not too fast but the practice will make it easy to play. There are some places where you need to stay on one note for a while like on the first and second line. Try to play the tabs along with the song to understand which notes will stay for long time. It’s enough description on the song, now let’s try the below given tabs.

Zehnaseeb
E|------------10--9-h-10----------------------------------|
B|--10-12--------------------------------------------------|

Zehnaseeb
B|--10-12--13---12---------------------------------------|
G|----------------------------------------------------------|

Tujhe chahun betahasha
B|-12-12--13-13--10-------------------------------------|
G|------------------------12--9---7/5---------------------|

Zehnaseeb
B|--------8----7-------------------------------------------|
G|--7------------------------------------------------------|

Mere kareeb
E|------------10--9-h-10----------------------------------|
B|--10-12--------------------------------------------------|

Mere habeeb
B|--10-12--13---12---------------------------------------|
G|----------------------------------------------------------|

Tujhe chahun betahasha
B|-12-12--13-13--10-------------------------------------|
G|------------------------12--9---7/5---------------------|

Zehnaseeb
B|--------8----7-------------------------------------------|
G|--7------------------------------------------------------|

Tere sang beete har lamhe pe
B|-10-10-10/12--8-10--10-10/12--8-10----------------|
G|----------------------------------------------------------|

Humko naaz hai
B|--8--------8-8-8----------------------------------------|
G|------9--------------------------------------------------|

Tere sang jo na beete us pe
B|-10-10-10/12--8-10--10-10/12--8-10----------------|
G|----------------------------------------------------------|

Aitraaz hai
B|--8--------8-8-8----------------------------------------|
G|------9--------------------------------------------------|

Is kadar hum dono ka milna
B|-12-12—12/13--10-12-12-12/13---10-12-----------|
G|---------------------------------------------------------|

Ek raaz hai
B|-12--10--9-9-9---------------------------------------|
G|--------------------------------------------------------|

Hua ameer
E|------------10--9-h-10----------------------------------|
B|--10-12--------------------------------------------------|

Dil gareeb
B|--10-12--13---12---------------------------------------|
G|----------------------------------------------------------|

Tujhe chahun betahasha
B|-12-12--13-13--10-------------------------------------|
G|------------------------12--9---7/5---------------------|

Zehnaseeb
B|--------8----7-------------------------------------------|
G|--7------------------------------------------------------|

You can end this like below:-

Zehnaseeb (ending)
B|-------8----7h8-----------------------------------------|
G|--7------------------------------------------------------|

SECOND PARA

Lena dena nahi duniya se mera bus
B|-8-10-8-7---8-10-8-7---8-10-8-7---7----------------|
G|-------------------------------------------7-------------|

Tujhse kaam hai
B|--------8-8-7-------------------------------------------|
G|-7-7----------------------------------------------------|

Teri akhiyon ke shehar mein yara sab
B|-8-10-8-7---8-10-8-7---8-10-8-7---7----------------|
G|-------------------------------------------7-------------|

Yaara sab intejaam hai
B|---------7-7---------------------------------------------|
G|--7-7----------7----------------------------------------|

Khushiyon ka ik tukda mile ja mile
B|-8-10-8-7---8-10-8-7---8-10-8-7---7----------------|
G|-------------------------------------------7-------------|

Gam ki ,,,,
B|--------8-8-7-------------------------------------------|
G|-7-7----------------------------------------------------|

Yaara tere mere kharche mein dono ka hi
B|-8-10-8-7---8-10-8-7---8-10-8-7---7----------------|
G|-------------------------------------------7-------------|

Ek daam hai
B|---------7-7---------------------------------------------|
G|--7-7----------7----------------------------------------|

Hona likha tha yunhi jo hua
E|----------10-10/12---12-10-10/7---10-10-10---------|
B|-10-12---------------------------------------------------|

Ja hote hote abhi
E|----------10-10/12---12--10-10/7---------------------|
B|-10-12---------------------------------------------------|

Anjaane mein ho gaya
E|-7-8-10-7---8-7-----------------------------------------|
B|--------------------10-----------------------------------|

Jo bhi hua
E|------------10--9-h-10----------------------------------|
B|--10-12--------------------------------------------------|

Hua ajeeb
B|--10-12--13---12---------------------------------------|
G|----------------------------------------------------------|

Tujhe chahun betahasha
B|-12-12--13-13--10-------------------------------------|
G|------------------------12--9---7/5---------------------|

Zehnaseeb
B|--------8----7-------------------------------------------|
G|--7------------------------------------------------------|

Zehnaseeb (ending)
B|-------8----7h8-----------------------------------------|
G|--7------------------------------------------------------|

Please Leave Feedback/comments if you like my work.


2 comments: