Sunday, 1 September 2013

Iktara Guitar Tabs Wake Up Sid with Intro


Song:  Iktara
Movie: Wake Up Sid



This song is very good so just give it a try on your guitar, you will love it.
 
LEAD PART

Lead Line 1
D|-5-7/9—9(b)-7/5----------------------------------|
A|-----------------------------------------------------|

b = bend half note quickly

Lead Line 2
G|--5-4-5-7--777------------------------------------|
D|-----------------------------------------------------|

Lead Line 3
A|-5--5(v)---3---------------------------------------|
E|-----------------------------------------------------|

v = vibrate

Lead Line 4
B|------------------8-7-10-8-7-----------------------|
G|------------4-7-----------------9-------------------|
D|-5-7-5-7-------------------------------------------|

Lead Line 5
B|-10/12--8-10-7-8----------------------------------|
G|-----------------------------------------------------|

Lead Line 6
E|--10-------------------------------------------------|
B|-------12-10-7/8--8-8-7-7-5-5--------------------|
G|------------------------------------7----------------|

THEN THE SONG STARTS

Line 1
G|-11-11-11-12-11-12-7-7-7-9--------------------|
D|-----------------------------------------------------|

Line 2
G|-11-11-11-12-11-12-7-7-7-9--------------------|
D|-----------------------------------------------------|

Line 3
G|-11-11-11-12-11-12-7-7-7-9--5-4---------------|
D|-----------------------------------------7-----------|

Line 4
G|------------7-5—4/2-2-4-2-------------------------|
D|-7-7-5-7---------------------5-5-------------------|

Line 5
B|------------------------5-5---------------------------|
G|----------4-4---5-5----------------------------------|
D|-5-5-5-----------------------------------------------|

Line 6
B|-7/8--5----------------------------------------------|
G|-----------7--5-5--7-7------------------------------|

Line 7 [MALE VOCAL]
G|-2/4--2----------------------------------------------|
D|-----------5-4-4--5-5-------------------------------|

Line 8
B|------------------------5-5---------------------------|
G|----------4-4---5-5----------------------------------|
D|-5-5-5-----------------------------------------------|

Line 9
B|-7/8--5----------------------------------------------|
G|-----------7--5-5--7-7------------------------------|

Line 10
B|-7-8-5--------------7-8-5---------------------------|
G|---------7-5-----------------7-5---------------------|

Line 11
G|-5/7--7-4-------------------------------------------|
D|--------------7-5-5----------------------------------|

Line 12 Goonja Sa Hai Koi Ik Tara Ik Tara
D|-44-777-5--5555--5555--------------------------|
A|-----------------------------------------------------|

Line 13
D|-44--777-5--5555---------------------------------|
A|-----------------------------------------------------|

Line 14
D|-44--7777----7777---7777-----------------------|
A|-----------------------------------------------------|

Line 15
G|-4-7-4----------------------------------------------|
D|----------77---5555--------------------------------|

Line 16
D|-44-777-5--5555--5555--------------------------|
A|-----------------------------------------------------|

Line 17
D|-44--777-5--5555---------------------------------|
A|-----------------------------------------------------|

Line 18
D|-44--7777----7777---7777-----------------------|
A|-----------------------------------------------------|

Line 19
G|-4-7-4----------------------------------------------|
D|----------77---5555--------------------------------|

Second Para

Line 20
E|-7-5-5-----------------------------------------------|
B|---------8—7/8--8----------------------------------|
G|-----------------------7/9--7------------------------|

Line 21
E|-7-5-5-----------------------------------------------|
B|----------8-7-8--------------------------------------|

Line 22
E|----------------------------5-------------------------|
B|-5-5--------5-5-7—7-8--------8-8------------------|
G|-------7-5--------------------------------------------|

Line 23
E|-7-5--------------------------------------------------|
B|------8—7/8--8--------------------------------------|
G|-------------------7/9--7-----------------------------|

Line 24
E|-7-5--------------------------------------------------|
B|-------8-7-8------------------------------------------|

Line 25
E|---------------------------------5--------------------|
B|-5-5-5--------5-5--7---7-8--------8-8-------------|
G|---------7-5-----------------------------------------|

Line 26 [MALE VOCAL]
D|-0-0-5-7-7---9(PO)-7---9(PO)-7--4--------------|
A|-----------------------------------------------------|

Line 27 [MALE VOCAL]
D|--4-5-7--5-5---------------------------------------|
A|-----------------------------------------------------|

Line 28
B|------------------------5-5---------------------------|
G|----------4-4---5-5----------------------------------|
D|-5-5-5-----------------------------------------------|

Line 29
B|-7/8--5----------------------------------------------|
G|-----------7--5-5--7-7------------------------------|

Line 30
B|-7-8-5--------------7-8-5---------------------------|
G|---------7-5-----------------7-5---------------------|

Line 31
G|-5/7--7-4-------------------------------------------|
D|--------------7-5-5----------------------------------|

Line 32
D|-44-777-5--5555--5555--------------------------|
A|-----------------------------------------------------|

Line 33
D|-44--777-5--5555---------------------------------|
A|-----------------------------------------------------|

Line 34
D|-44--7777----7777---7777-----------------------|
A|-----------------------------------------------------|

Line 35
G|-4-7-4----------------------------------------------|
D|----------77---5555--------------------------------|

Line 36
D|-44-777-5--5555--5555--------------------------|
A|-----------------------------------------------------|

Line 37
D|-44--777-5--5555---------------------------------|
A|-----------------------------------------------------|

Line 38
D|-44--7777----7777---7777-----------------------|
A|-----------------------------------------------------|

Line 39
G|-4-7-4----------------------------------------------|
D|----------77---5555--------------------------------|


1 comment:

  1. can u please give tabs of the music in between the paras...

    ReplyDelete