Thursday, 26 September 2013

Pee Loon Guitar Tabs Once Upon Time In Mumbai


Song: Pee Loon
Movie: Once Upon Time In Mumbai

REQUESTED BY: Ishwarya Chandara

I don’t know how many of you watched this movie but surely I can say that it was better than OUTIM Dobara. And This Song is beautiful to play on the guitar.

So Let’s Start figure out the notes of the song..


Line 1
B|-4----------------------------------------------------|
G|----5--3-5-6-5-3------------6-5-3------------------|

D|---------------------6-666---------------------------|

Line 2
B|-4---------------------------------------------------|
G|----5-3-5-6-5-3------------5--3-3-----------------|
D|--------------------6-666---------------------------|

Line 3
B|-----------------------------------------------------|
G|-3/5-------------5-3-------------------------------|
D|-------6--6666---------6-5-3---------------------|

Line 4
G|-3-5-3---------------------------------------------|
D|--------6--66666----------------------------------|

Line 5
G|-3-5-3---------------------------------------------|
D|---------6-66666----------------------------------|

Line 6
G|-3-5-3----------6-5-3-----------------------------|
D|---------6-666-------------------------------------|

Line 7
G|-3-5-6-5-3-----------------------------------------|
D|--------------6-6-6-6------------------------------|

Play The Above Bold Lines Twice.

Line 8
B|-4-----4------4----------------------------------------|
G|----5-----5------3—3/1-------------------------------|

Line 9
B|-4-----4-----6/4---------------------------------------|
G|----5-----5---------3---3/1---------------------------|

Line 10
B|---------6-6-4------6-4-------------------------------|
G|-1-1-1----------5---------5-3-5-3-1-----------------|

Line 11
G|-5-3----------------3---------------------------------|
D|-------6-5-3------------6-6--------------------------|

Line 12
G|-5-3-5-3---------------------------------------------|
D|-------------6-6-5-3---------------------------------|

Line 13
B|-------------4----------------------------------------|
G|-5-5-5-6-------5-3-------3-5-----------------------|
D|-----------------------6------------------------------|

SECOND PARA

Line 14
B|-4-4-4/6-4--6-4------4-4-4/6-4--------------------|
G|--------------------5---------------------------------|


Line 15
B|-6-4-------------------------------------4------------|
G|------5-6-5-----6-5------6-5-----6-6-------3-------|
D|--------------6--------6--------6---------------------|

Line 16
B|-4-4-4/6-4--6-4------4-4-4/6-4--------------------|
G|--------------------5---------------------------------|

Line 17
B|-6-4-------------------------------------4------------|
G|------5-6-5-----6-5------6-5-----6-6-------3-------|
D|--------------6--------6--------6---------------------|

Line 18
B|-4----------------------------------------------------|
G|----5--3-5-6-5-3------------6-5-3------------------|
D|---------------------6-666---------------------------|

Line 19
B|-4---------------------------------------------------|
G|----5-3-5-6-5-3------------5--3-3-----------------|
D|--------------------6-666---------------------------|

Line 20
B|-----------------------------------------------------|
G|-3/5-------------5-3-------------------------------|
D|-------6--6666---------6-5-3---------------------|

Line 21
G|-3-5-3---------------------------------------------|
D|--------6--66666----------------------------------|

Line 22
G|-3-5-3---------------------------------------------|
D|---------6-66666----------------------------------|

Line 23
G|-3-5-3----------6-5-3-----------------------------|
D|---------6-666-------------------------------------|

Line 24
G|-3-5-6-5-3-----------------------------------------|
D|--------------6-6-6-6------------------------------|

THIRD PARA

Line 25
B|-4-4-4/6-4--6-4------4-4-4/6-4--------------------|
G|--------------------5---------------------------------|

Line 26
B|-6-4-------------------------------------4------------|
G|------5-6-5-----6-5------6-5-----6-6-------3-------|
D|--------------6--------6--------6---------------------|

Line 27
B|-4-4-4/6-4--6-4------4-4-4/6-4--------------------|
G|--------------------5---------------------------------|

Line 28
B|-6-4-------------------------------------4------------|
G|------5-6-5-----6-5------6-5-----6-6-------3-------|
D|--------------6--------6--------6---------------------|

Line 29
B|-4----------------------------------------------------|
G|----5--3-5-6-5-3------------6-5-3------------------|
D|---------------------6-666---------------------------|

Line 30
B|-4---------------------------------------------------|
G|----5-3-5-6-5-3------------5--3-3-----------------|
D|--------------------6-666---------------------------|

Line 31
B|-----------------------------------------------------|
G|-3/5-------------5-3-------------------------------|
D|-------6--6666---------6-5-3---------------------|

Line 32
G|-3-5-3---------------------------------------------|
D|--------6--66666----------------------------------|

Line 33
G|-3-5-3---------------------------------------------|
D|---------6-66666----------------------------------|

Line 34
G|-3-5-3----------6-5-3-----------------------------|
D|---------6-666-------------------------------------|

Line 35
G|-3-5-6-5-3-----------------------------------------|
D|--------------6-6-6-6------------------------------|

Line 36
B|-4-----4------4----------------------------------------|
G|----5-----5------3—3/1-------------------------------|

Line 37
B|-4-----4-----6/4---------------------------------------|
G|----5-----5---------3---3/1---------------------------|

Line 38
B|---------6-6-4------6-4-------------------------------|
G|-1-1-1----------5---------5-3-5-3-1-----------------|

Line 39
G|-5-3----------------3---------------------------------|
D|-------6-5-3------------6-6--------------------------|

Line 40
G|-5-3-5-3---------------------------------------------|
D|-------------6-6-5-3---------------------------------|

Line 41
B|-------------4----------------------------------------|
G|-5-5-5-6-------5-3-------3-5-----------------------|
D|-----------------------6------------------------------|

No comments:

Post a Comment