Friday, 4 October 2013

O Heeriye Guitar Tabs by Ayushmaan Khurana

Song:- O Heeriye Tenu Lai Jaana
Singer:- Ayushmaan Khurana


Ayushmaan Khuran is back again with this song. I know there are many people who like his songs. All his previous songs were hit (i think). So let's not waste the time & try your hands on this song.

                                                            WATCH THE VIDEO
 




Line 1
A-2-4-44-444----2-4--4444-----------------|
E----------------------------------------------|

Line 2
A-555--55--44-------------------------------|
E----------------------------------------------|

Line 3
A-2-4-4444--2-4--4444---------------------|
E----------------------------------------------|

Line 4
A-555-555-44-------------------------------|
E----------------------------------------------|


Line 5
A----------------222-2------------------------|
E-55-555-5-4---------------------------------|

Line 6
A-222-4-2-------4-----------------------------|
E-------------5---------------------------------|

Line 7
A-444-4--4/7--77---5555--------------------|
E-----------------------------------------------|

Line8
G-----------2--1--1-----------------------------|
D-222--2----------------------------------------|

Line 9
G-4/6-666-6/4-4/6-66------6-777-77--77----|
D-------------------------------------------------|

Line 10
G-7/9-9/7-7/6-6-4/7-6------------------------|
D--------------------------6---------------------|

Line 11
G-------6/4------4---------------------------|
D-7-9--------7------7-----------------------|

Line 12 (ending line)
G-4/6--66-6/9-9-9/7--777------------------|
D--------------------------------------------|

SECOND PARA

Line 13
G---------4/6------4/6----------------------|
D-4-6-7-------6----------------------------|

Line 14
G-------44----------------------------------|
D-7-6-------6-6-7--6-4--------------------|

Line 15
G---------4/6------4/6----------------------|
D-4-6-7-------6----------------------------|

Line 16
G-4--77-6-44--6(po)-4---------------------|
D--------------------------------------------|

Line 17
G-6-7-6-------------------------------------|
D---------7--2/4--4-------------------------|

Tip:- while playing 2/4, hold the 2nd note 
        for few seconds then slide to 4th note.
Line 18
D-7-6--4-2---2/4--2-2----------------------|
A--------------------------------------------|

Line 19
D-2-2---------------------------------------|
A-------5-4--555---------------------------|

Line 20
G---------2--1--1--------------------------|
D-2222-------------------------------------|

Line 21
G-4/6-666-6/4-4/6-66----6-777-77--77-----|
D------------------------------------------------|

Line 22
G-7/9-9/7-7/6-6-4/7-6----------------------|
D-------------------------6-------------------|

Line 23
G-------6/4------4---------------------------|
D-7-9--------7------7-----------------------|

Line 24 (ending line)
G-4/6--66-6/9-9-9/7--777------------------|
D--------------------------------------------|

THIRD PARA

Line 25
G-2-4--4/6----------------------------------|
D--------------------------------------------|

Line 26
G-6-4-6-------4-----------------------------|
D----------7-------7-------------------------|

Line 27
G-6-4-6-----4------------------------------|
D---------7-----7-6--4---------7-----------|

Line 28
G-------4-6-4--------4----------------------|
D-7-7-----------7-6-------------------------|

Line 29
G-------4-6-4--------4----------------------|
D-7-7-----------7-6-------------------------|

Line 30
G-6--4--6-----------------------------------|
D--------------------------------------------|

Now Repeat from line 27 to 30.

Line 31
A-2-4-44444------2-4-44444--------------|
E--------------------------------------------|

Line 32
A-5555-55-44-------------------------------|
E---------------------------------------------|

Line 33
A-2-4-44444------2-4-44444--------------|
E--------------------------------------------|

Line 34
A-5555-55-44-------------------------------|
E---------------------------------------------|

Line 35
G-4/6-666-6/4-4/6-666-777-77-66---------|
D-----------------------------------------------|

Line 36
G-6/9-9/7-7/6-6-4/7--6---------------------|
D----------------------------6-----------------|

Hope you will like it.
 

3 comments: