Sunday, 22 September 2013

Aap Ki Nazron Ne Samjha Guitar Tabs Anpadh


Song: Aap Ki Nazron Ne Samjha
Movie: Anpadh (1962)

REQUESTED BY: Avishek

I have not heard the original track because I came to know about this song from the album “Sunehri Yaadein” many years ago. Don’t know about the singer as well. But the song is remake of the original. Only the music is changed between the gaps which you will love to hear & the voice of the girl is amazing. I am going to tab the version which I am talking, of course you can play these tabs on the original song also. No differences.


Line 1
E|-9/7-7-7-9-------7-7------------------------------|
B|--------------10----------10/7--7-----------------|


Line 2
E|-10-10-10/12—9/7--7--5-7/9—3/5--------------|
B|-----------------------------------------------------|

Line 3
E|-9/7--7-7--9-------7-7----------------------------|
B|----------------10---------10---7-7---------------|

Line 4
E|-10-10-10/12—9/7--7--5-7/9—3/5--------------|
B|-----------------------------------------------------|

Line 5 (ending line)
E|-9-7-7-9--------77777----------------------------|
B|------------10--------------------------------------|


Second Para.
 
Line 6
E|-7-5-7—7/9--5-------------------5----------------|
B|-------------------8-7-----7-8---------------------|

Line 7
E|-5----------------5-3-2-------------10-9-5--------|
B|-----7-3—2/3---------------------------------------|

Line 8
E|-7-5-7—7/9--5-------------------5----------------|
B|-------------------8-7-----7-8---------------------|

Line 9
E|-5---------------5-3—2/3/5/7---------------------|
B|------7-3-2/3--------------------------------------|

Note: Continue Slide 2/3/5/7 notes ( stay for a second like aa aa aa aa)

Line 10
E|-9-7-9-9-10-9-10/9/7/5--------------------------|
B|-----------------------------------------------------|


Line 11
E|-3-5-9/12-9-7--777---------7--------------------|
B|-------------------------10-------8---10----------|

Line 12
E|-9-7-7-7-7-9-------7-7----------------------------|
B|----------------10--------10--7-7------------------|

Line 13
E|-10-10-10/12—9/7--7--5-7/9—3/5--------------|
B|-----------------------------------------------------|

Line 14 (ending line)
E|-9-7-7-9--------77777----------------------------|
B|------------10--------------------------------------|


You Can Continue Tabbing Next Para similar way.

5 comments:

  1. http://www.youtube.com/watch?v=5OFXheimGm4

    ReplyDelete
  2. Sir ji! real stuck at 2nd line. is E|--- 5-7/9 for mujhe?

    if yes. is last 3/5 just tune? help plz

    ReplyDelete
    Replies
    1. Hi, yes 5-7/9on E string is for "mujhe". And 3/5 is not for tune it follows the singers voice till the end. I realize that 3/5 doesn't sound good. So please replace 3/5 with 8/10 on B string. So now you have to play 5-7/9 on E then 8/10 on B string insted of 3/5 on E string.
      I hope now it will sound good. If you still don't get it you can just skip 3/5. Let me know after trying.

      Delete
  3. Can help fr the starting lead of app ki nazro ne samja by sanam puri

    ReplyDelete