Sunday, 29 September 2013

Jo Bhi Main Guitar Tabs, Rockstar



Song: Jo Bhi Main Guitar Tabs
Movie: Rockstar


REQUESTED BY: Mr. Sidhant Agarwal

Tabbed By: Gurdip Singh

Rockstar Movie gave birth to many new guitarists, and it was actually entertaining specially because of it’s rocking music. Mohit Chauhan became my instant favorite after listening it's musice. I often listen the full album in my free time & I hope you too like the music given by A.R Rahman.

Ranbir Kapoor also did a great job in the movie. So over all it was quite fun, So let’s get back to the topic, yes the song itself. This song is just wow!!! Amazing!!

I Tried to provide all yeh yeh (blah blah), & I hope you all will like it & share it. You can find “Aur Ho” song from the same movie. Just use the search feature available on the blog.

Proudly Presenting,, Jo Bhi Main Song 
 

This Song Starts with the Intro, Let’s see that intro first:-

Intro Tabs:-
Play it as per your liking.

E|------0----------------------------------------------|
B|-----------0---3------------------------------------|
G|--------------------0—2(h)4(p)2(p)0--------------|
D|-----------------------------------------------------|
A|-----------------------------------------------------|
E|-0---------------------------------------------------|

Now Let’s Play Those “yeh yeh” part
To Keep It Simple, I Am Providing It Line Wise

Ya Ya Ya
B|--8--7------------------------------------------------|
G|----------9-------------------------------------------|

Ya Ya Ya Haaaa (Play Two Times)
B|-8--7------------------------------------------------|
G|--------9—7/6/4------------------------------------|

Oh Yeh Yeh
G|-7---7/9--9----------------------------------------|
D|-----------------------------------------------------|

Ya Ya Ya Ya Ya Ya
B|--8--7-----------------------------------------------|
G|---------9---7-6-4----------------------------------|

Ho Ho Ho,, Wo Ho Ho Ho
G|-7-6-4-----7-6-7/9--------------------------------|
D|-----------------------------------------------------|

Now Let’s Start The Actual Song:-

Line 1
G|-7-7------7-7-7------------------------------------|
D|-------9------------7/9-----------------------------|

Line 2
G|-77777-6-------------------------------------------|
D|------------7777-99---------7777-99-------------|

Oh Yeh Yeh
G|-7---7/9--9----------------------------------------|
D|-----------------------------------------------------|

Ya Ya Ya
B|--8--7------------------------------------------------|
G|----------9-------------------------------------------|

Ya Ya Ya Ho oooo
B|--8--7-----------------------------------------------|
G|---------9---7-6-4----------------------------------|

Ho Ho Ho,, Wo Ho Ho Ho
G|-7-6-4-----7-6-7/9--------------------------------|
D|-----------------------------------------------------|

Wo Ho Ho Ho Hooo ooo
G|-7-6-2-2/4—4/2--0-2/4---------------------------|
D|-----------------------------------------------------|

SECOND PARA

Line 3
D|-7-9-7-97-9-7-9-9--------------------------------|
A|-----------------------------------------------------|

Line 4
D|-9-10-9-10-9-10-5-7-7/5-------------------------|
A|-----------------------------------------------------|

Line 5
D|-5-7-5-7-5-7-9-10-10/12-------------------------|
A|-----------------------------------------------------|

Line 6
G|-9-11-9-11-9-11-9-11-11-------------------------|
D|-----------------------------------------------------|

Line 7
G|-11-12-11-12-7-7-9-9/11-------------------------|
D|-----------------------------------------------------|

Line 8
G|-7-9-12-9------------------------------------------|
D|-----------------------------------------------------|

Line 9
G|------------------7/4-------------------------------|
D|--5-5-7-9/10--------------------------------------|

Line 10
G|-7-7------7-7-7------------------------------------|
D|-------9------------7/9-----------------------------|

Line 11
G|-77777-6-------------------------------------------|
D|------------7777-99---------7777-99-------------|

Now There Is A Beautiful Lead After Second Para
Let’s Solve It:-


Lead Line 1
E|--------------10--------------------------------------------|
B|-10-12-13-------13-12-13--13-12-10-12-10-8-8/10---|

Lead Line 2
E|------------------10--------------15-10--------------------|
B|-----10-12-13-------13-12-13-----------12-13-13/15---|
G|-7-----------------------------------------------------------|

You Can Continue Tabbing Third Para Like Second One.

I Need Your Feedback, Please Let Me Know If You Like It.

2 comments: