Sunday, 1 September 2013

Zara Zara Behakta Hai Guitar Tabs Rehna Hai Tere Dil Mein


Song:  Zara Zara
Movie: Rehna Hai Tere Dil Mein


Today Let's try something romantic from the movie Rehna hai tere dil mein. The movie is average but the music is good. You can improve the song by modifying the notes or you can also add more slides & pull off.

Line 1
B|-23-23-3-2-3—5(PO)2-3--------------------------|
G|-----------------------------------------------------|

Note: You can skip pull off from 5 to 2 & play it simply by 5-2-3 in above line.
         But too catch the feeling you must pull off.

Line 2
B|-3-2-3-5(PO)-2-3----------------------------------|
G|-----------------------------------------------------|

Line 3
B|-2-2-5/7--3-2--------------------------------------|
G|-----------------------------------------------------|

Line 4
B|-3-2-3-3-2/3-5(PO)2-3---------------------------|
G|-----------------------------------------------------|

Line 5
B|-3-2/3—5(PO)2-3------3-2-2---------------------|
G|----------------------4----------2------------------|

REPEAT ABOVE LINES TWO TIMES IF YOU WANT.


Line 6
B|-------3-2--------------3---------------------------|
G|-4-4--------2------2-------4-----------------------|
D|---------------------------------5-------------------|

Line 7
B|--------------2--0-----------------------------------|
G|----2------------------------------------------------|
D|-5-----5-4------------------------------------------|

Line 8
B|-----3/2-------------2(PO)0------------------------|
G|-4--------2-----2-----------------------------------|
D|---------------------------------5-------------------|

Line 9
B|----------------2—2(PO)0---------------------------|
G|----2-------------------------------------------------|
D|-5-----5--4------------------------------------------|


Now Start The Second Para

Line 10
B|-----3—5/7—5/7--5-7-5-7--3-2--------------------|
G|-4----------------------------------------------------|

Line 11
B|-5-5/7--3-3—2/3-----------------------------------|
G|---------------------4-------------------------------|

Line 12
B|-55555—5/2—2/5--7-8-5/7-----------------------|
G|-----------------------------------------------------|

Note: Please hold 7th Note for few seconds in above line.

Line 13
E|---------------------------7-5-----------------------|
B|-----3—5/7—5/7---5-7-------7--------------------|
G|-4----------------------------------7/6-------------|

Line 14
B|-5-5-5—5/7-----------------------------------------|
G|----------------7-7-7—6/7--4----------------------|


Line 15
B|-5-5-5—5/2—2/5--7-8—5/7----------------------|
G|-----------------------------------------------------|

Line 16
E|-----77--------99-----------------------------------|
B|-7-------7--7-------7-------------------------------|

Line 17
E|-----10-10-10--9--7-5-5-7------------------------|
B|-7---------------------------------------------------|

Line 18
E|-----77------------55-------------------------------|
B|-7--------7---7--------5----------------------------|

Line 19
E|-----3-3-2-0----------------------------------------|
B|-5---------------3-2-3/5--2------------------------|
Line 20
B|-23-23-3-2-3—5(PO)2-3--------------------------|
G|-----------------------------------------------------|

Line 21
B|-3-2-3-5(PO)-2-3----------------------------------|
G|-----------------------------------------------------|

Line 22
B|-2-2-5/7--3-2--------------------------------------|
G|-----------------------------------------------------|

Line 23
B|-3-2-3-3-2/3-5(PO)2-3---------------------------|
G|-----------------------------------------------------|

Line 24
B|-3-2/3—5(PO)2-3------3-2-2---------------------|
G|----------------------4----------2------------------|

Next Para is same , i could't listen it but i know it sounds same as above para.
So try same as given in above para.

1 comment:

  1. this site is verry nice. site colour is verry cute.. i love this site...Mp3pagli there are every type mp3 songs avilable.


    tevar songspk

    tevar songs download

    Katra Katra songspk

    songs download

    alone songspk

    alone songs download

    mp3 songs download

    songspk

    songspk

    mp3 download



    http://www.mp3pagli.com
    http://www.nsongspk.com

    ReplyDelete