Thursday, 26 September 2013

Batadmeez Dil Guitar Tabs YJHD


Song: Badtameez Dil
Movie: Yeh Jawani Hai Deewani
This is a fast song, so be careful while playing it. First you need to practice it slowly then you can increase the speed. See the tabs below:


Pa Pa Pa Parra (lead Music)
G|-777-------777-------777--------------------------------------|
D|-------77---------77--------77---8-10-8---8-10-8------------|


Pa Pa Pa Parra (lead Music)
G|-777-------777-------777--------------------------------------|
D|-------77---------77--------77---8-10-8---8-10-8------------|


Line 1 to 4 (playe each group of 7 note for each line)
G|--7777777---7777777---7777777--7777777------------------|

Line 5 to 6

G|-5555555---5555555--5555555--7----------------|
D|-----------------------------------------7------------|


Pa Pa Pa Parra (lead Music)
G|-777-------777-------777--------------------------------------|
D|-------77---------77--------77---8-10-8---8-10-8------------|


Pa Pa Pa Parra (lead Music)
G|-777-------777-------777--------------------------------------|
D|-------77---------77--------77---8-10-8---8-10-8------------|


Line 7 to 10

(you can adjust the note length to your liking)
G|--7777777---7777777---7777777--7777777-----------|

Line 11 & 12.

G|-5555555---5555555--5555555--7----------------|
D|-----------------------------------------7------------|


Line 13

B|------------------------------8-----------------------|
G|--7-9-10-9--10-10-9--10--------------------------|


Line 14

G|--9-7-9-10—9-9-----------------------------------|

Line 15

B|------------------------------8-----------------------|
G|--7-9-10-9--10-10-9--10--------------------------|


Line 16

G|--9-7-9-10—9-9-----------------------------------|

Line 17

G|--10-9-7-5-5--10-9-7-----------------------------|
D|-------------------------8----------------------------|


Line 18

G|-----------------------------------------------------|
D|--888--10-8-7--------------------------------------|


Line 19 (Badtamez) Play two times

G|-777-------777-------777--------------------------------------|
D|-------77---------77--------77---8-10-8---8-10-8------------|


Line 20

B|-----------------------------------------------------|
G|--97979---7979--7979----------------------------|


Maane Na, Maane Na
Line 21
B|------8--10-8--------------------------------------------|
G|--10------------10--9------------------------------------|



Now to end the song play the 19th line twice.

7 comments: