Thursday, 5 September 2013

Poh Di Raat Chandriye Guitar Tabs & Chords Diljit Dosanjh


Song: Poh Di Raat (Punjabi)
Album: Back To Basics
Singer: DilJit Dosanjh



This is a Punjabi song by my favorite artist Diljit Dosanjh from his album “Back To Basics”.
This song has pure desi lyrics and western music. I love this kind of songs.

I will provide the tabs as well as chords of this song. Well this is the first time that I am providing the chords part also. To keep it simple I used three chords as given below.

Let’s start the song.

Chords Used:-         Bbm Fm & C#maj
Strumming Pattern: DDUUUDDU+Fillers





          Bbm
Line 1

D|-3-6—6/8--8---8888------------------------------|
A|-----------------------------------------------------|


                       Fm
Line 2
D|-88-8/13-10---6-6-8-8/10------------------------|
A|-----------------------------------------------------|


          C#Maj 
Line 3
D|-11-11-11-11-11---11/13------------------------|
A|-----------------------------------------------------|


                               Bbm   
Line 4
D|-10-10-6-10-8-8—6/8----------------------------|
A|-----------------------------------------------------|


Bbm
Line 5
D|-3-6—6/8--8---888--------------------------------|
A|-----------------------------------------------------|


                         Fm
Line 6
D|-88-8/13-10---6-6-8-8/10------------------------|
A|-----------------------------------------------------|


             C#Maj 
Line 7
D|-11-11-11-11-11---11/13------------------------|
A|-----------------------------------------------------|


                  Bbm  
Line 8
D|-10-10-6-10-8-8—6/8----------------------------|
A|-----------------------------------------------------|


          Bbm
Line 9
D|-3-6—6/8--8---8888------------------------------|
A|-----------------------------------------------------|



Second Para

         Bbm
Line 10
G|--------10-10-10-10-------------------------------|
D|-10-3-----------------------------------------------|

               Fm
Line 11
G|-10-10--------13-10-10-10-----------------------|
D|-----------10------------------13/15--------------|

     C#Maj
Line 12
D|-11-11-11-11-11----11/13-----------------------|
A|-----------------------------------------------------|


                Bbm
Line 13
D|-10-10-6-10--8-8-8—6/8-------------------------|
A|-----------------------------------------------------|


Bbm
Line 14
D|-3-6—6/8---8-8-8---------------------------------|
A|-----------------------------------------------------|


                 Fm
Line 15
D|-8-8—8/13--10-6-6-8—8/10---------------------|
A|-----------------------------------------------------|


        C#Maj
Line 16
D|-11-11-11-11-11----11/13-----------------------|
A|-----------------------------------------------------|


                      Bbm
Line 17
D|-10-10-6-10-8-8-6/8-----------------------------|
A|----------------------------------------------------|


Bbm
Line 18
D|-3-6—6/8--8---8888------------------------------|
A|-----------------------------------------------------|


                       Fm
Line 19
D|-88-8/13-10---6-6-8-8/10------------------------|
A|-----------------------------------------------------|


          C#Maj
Line 20
D|-11-11-11-11-11---11/13------------------------|
A|-----------------------------------------------------|


                               Bbm  
Line 21
D|-10-10-6-10-8-8—6/8----------------------------|
A|-----------------------------------------------------|


You Can Use The Chords & Tabs as given in above para for the nex para.

4 comments:

  1. Nice !!!!!!!!!!!
    Thanks Gurdeep Singh

    ReplyDelete
  2. Sir G
    on top , Chords used --says C#Maj
    while below is C#m

    please address this typo.
    Thanks

    ReplyDelete