Thursday, 26 September 2013

Tum Bin Jaaun Kahan Guitar Tabs


Song: Tum Bin Jaaun Kahan
Movie: Pyar Ka Mausam
Singer: Kishore Kumar


This is beautiful song & has many versions in the original movie itself. This song has also many remixes  and remakes. Recently the song was used in the movie called “Dil Vil Pyar Vyaar” which has also many other old popular songs.

I am making this song by listening Kishore Kumar’s version which I personally love because I listened it from my childhood. Other versions are similar but you may find little differences so if you are planning to match it with other versions then you can play it as it is or can change some notes here & there. But basically the idea is same.

So Let’s Start tabbing the song.
Line 1
D|-7-7---------------------------------------------------|
A|--------7/11---11----11------------------------------|



Line 2
D|-9/7---7---9/6---6--6--------------------------------|
A|--------------------------------------------------------|

Line 3
D|-6—6/7-----------------------------------------------|
A|------------7-7—5/7----------------------------------|
E|-------------------------8-----------------------------|

Line 4
D|------------6-9-9-6-7---7/9--------------------------|
A|-----5--7----------------------------------------------|
E|-8-----------------------------------------------------|

Line 5
D|-9-9/5—9/12--9-10-9(h)10(PO)9/7----------------|
A|--------------------------------------------------------|

Line 6
D|-7-7---------------------------------------------------|
A|--------7/11---11----11------------------------------|

And you can repeat all the above lines once more.


Now The Next Part Is Sung By Vocals By Kishore Ji
But the same is replaced by keyboard in Dil Vil Pyar Vyaar.
You can play the below tabs for both versions.

Aaa haa haa haa haa haa hmmmm
G|-----------------------10--9----------------------------|
D|----------10-9-7-7-------------------------------------|
A|-7-8-7--------------------------------------------------|


Aaa haa haa haa haa hmmmm
G|------------------------9-7-----------------------------|
D|----------10-9-7-7-------------------------------------|
A|-7-8-7--------------------------------------------------|


Aaa haa haa haa hmmm
G|------------------------12-10---------------------------|
D|----------7-9-10-10------------------------------------|
A|-7-8-7---------------------------------------------------|


Hmmm hmm hmm hmmmm
G|-7-9--10-9-------12--10--9----------------------------|
D|---------------7------------------------------------------|

Let’s Start The Second Para

Line 7
D|-11-11-9/11--14—11/9—9/11--7---------------------|
A|----------------------------------------------------------|

Line 8
D|-11-11-11-9-9-11-12----------------------------------|
A|----------------------------------------------------------|

Line 9
D|-11-11-11(PO)9(H)9/14—11/9—9/11-7--------------|
A|----------------------------------------------------------|

Line 10
D|-11-11-11-9-9-11-12----------------------------------|
A|----------------------------------------------------------|

Line 11
D|-10-10-10--14-10-9-9-9-5-5--------------------------|
A|----------------------------------------------------------|

Line 12
D|------6-6-7-7/9--9-9/5—9/12-9-10—9(h)10(PO)9/7-|
A|-5/7------------------------------------------------------|

Line 13
D|-7-7-----------------------------------------------------|
A|--------7/11---11----11--------------------------------|

Note: You Can Continue Tabbing Next Para as Second para.

2 comments: