Monday, 2 September 2013

Luka Chuppi Guitar Tabs Movie: Rang De Basanti


Song:  Luka Chuppi
Movie: Rang De Basanti

Luka Chuppi song is from the movie Rang de basanti. This track is really imotional even without watching the movie. A.R Rahman, what I can say about him as you already know he is great music director & singer. Pick your guitar and try this song on your guitar. Oh you can dedicate this to your mother also, she will happy to listen it.
 
Line 1
B|--9-9-9-10-----9-9-9-10--------------------------|
G|-----------------------------------------------------|

Line 2
B|-9-10-9-7-7---------7-9---------------------------|
G|----------------9-9---------------------------------|

Line 3
B|--9-9-9-10-----9-9-9-10--------------------------|
G|-----------------------------------------------------|

Line 4
B|-9-10-9-7-7---------7-9---------------------------|
G|----------------9-9---------------------------------|

Line 5
B|------7--------------7-7-10-10-9------------------|
G|--9------8-8-9-9-----------------------------------|

Line 6
B|------7--------------7-7-10-10-9------------------|
G|--9------8-8-9-9-----------------------------------|

Line 7 (aaja na)
G|--9-8-9---------------------------------------------|

Now the boy starts to sing:

Line 8
B|--------------7--------------------------------------------------|
G|--------8-9------9-9-9-9-9-hold-last-note-for-few-seconds-|
D|--7-9-----------------------------------------------------------|

Line 9
B|-----------------7------------------------------------|
G|--------8-8-9-------9-9-----------------------------|
D|--7-9----------------------9-11---------------------|

Line 10
D|--11-7-9/11--9-9-9---------------------------------|

Line 11
B|-----------------7------------------------------------|
G|--------8-8-9-------9-9-----------------------------|
D|--7-9----------------------9-11---------------------|

Line 12
D|-11-7-9/11-99-11-9-7-66--------4----------------|
A|---------------------------------7--------------------|

Line 13
D|--6-6-6-7---------6-6-6-7--------------------------|

Line 14
D|--6-7-6-4-4----------4-6----------------------------|
A|----------------7-7-----------------------------------|
Line 15
D|--6-6-6-7---------6-6-6-7--------------------------|

Line 16
D|--6/7-6-4-4-----------4-6---------------------------|
A|-----------------7-7----------------------------------|

Line 17 (girl)
B|------7--------------7-7-10-10-9------------------|
G|--9------8-8-9-9-----------------------------------|

Line 18
B|------7--------------7-7-10-10-9------------------|
G|--9------8-8-9-9-----------------------------------|

Line 19 (aaja na)
G|--9-8-9---------------------------------------------|

3 comments:

  1. thnx bro :D
    for responding so quickly

    ReplyDelete
  2. Gurdip nice 1 bro...:)
    Can I please have the starting lead part of the song..:):)

    ReplyDelete